  0
SECTION
  2
HEADER
  9
$ACADVER
  1
AC1015
  9
$ACADMAINTVER
 70
     6
  9
$DWGCODEPAGE
  3
ANSI_1254
  9
$INSBASE
 10
0.0
 20
0.0
 30
0.0
  9
$EXTMIN
 10
0.0
 20
0.0
 30
0.0
  9
$EXTMAX
 10
279.4
 20
215.9
 30
0.0
  9
$LIMMIN
 10
0.0
 20
0.0
  9
$LIMMAX
 10
279.4
 20
215.9
  9
$ORTHOMODE
 70
     0
  9
$REGENMODE
 70
     1
  9
$FILLMODE
 70
     1
  9
$QTEXTMODE
 70
     0
  9
$MIRRTEXT
 70
     1
  9
$LTSCALE
 40
1.0
  9
$ATTMODE
 70
     1
  9
$TEXTSIZE
 40
3.5
  9
$TRACEWID
 40
1.0
  9
$TEXTSTYLE
  7
Standard
  9
$CLAYER
  8
0
  9
$CELTYPE
  6
ByLayer
  9
$CECOLOR
 62
   256
  9
$CELTSCALE
 40
1.0
  9
$DISPSILH
 70
     0
  9
$DIMSCALE
 40
1.0
  9
$DIMASZ
 40
3.5
  9
$DIMEXO
 40
1.0
  9
$DIMDLI
 40
3.75
  9
$DIMRND
 40
0.0
  9
$DIMDLE
 40
0.0
  9
$DIMEXE
 40
1.0
  9
$DIMTP
 40
0.0
  9
$DIMTM
 40
0.0
  9
$DIMTXT
 40
3.5
  9
$DIMCEN
 40
2.5
  9
$DIMTSZ
 40
0.0
  9
$DIMTOL
 70
     0
  9
$DIMLIM
 70
     0
  9
$DIMTIH
 70
     1
  9
$DIMTOH
 70
     1
  9
$DIMSE1
 70
     0
  9
$DIMSE2
 70
     0
  9
$DIMTAD
 70
     1
  9
$DIMZIN
 70
     0
  9
$DIMBLK
  1

  9
$DIMASO
 70
     1
  9
$DIMSHO
 70
     1
  9
$DIMPOST
  1

  9
$DIMAPOST
  1

  9
$DIMALT
 70
     0
  9
$DIMALTD
 70
     3
  9
$DIMALTF
 40
0.0393700787
  9
$DIMLFAC
 40
1.0
  9
$DIMTOFL
 70
     1
  9
$DIMTVP
 40
0.0
  9
$DIMTIX
 70
     0
  9
$DIMSOXD
 70
     0
  9
$DIMSAH
 70
     0
  9
$DIMBLK1
  1

  9
$DIMBLK2
  1

  9
$DIMSTYLE
  2
ISO-25
  9
$DIMCLRD
 70
     0
  9
$DIMCLRE
 70
     0
  9
$DIMCLRT
 70
     0
  9
$DIMTFAC
 40
1.0
  9
$DIMGAP
 40
1.524
  9
$DIMJUST
 70
     0
  9
$DIMSD1
 70
     0
  9
$DIMSD2
 70
     0
  9
$DIMTOLJ
 70
     0
  9
$DIMTZIN
 70
     0
  9
$DIMALTZ
 70
     0
  9
$DIMALTTZ
 70
     0
  9
$DIMUPT
 70
     0
  9
$DIMDEC
 70
     2
  9
$DIMTDEC
 70
     2
  9
$DIMALTU
 70
     2
  9
$DIMALTTD
 70
     3
  9
$DIMTXSTY
  7
Standard
  9
$DIMAUNIT
 70
     0
  9
$DIMADEC
 70
     2
  9
$DIMALTRND
 40
0.0
  9
$DIMAZIN
 70
     0
  9
$DIMDSEP
 70
    44
  9
$DIMATFIT
 70
     3
  9
$DIMFRAC
 70
     0
  9
$DIMLDRBLK
  1

  9
$DIMLUNIT
 70
     2
  9
$DIMLWD
 70
    -2
  9
$DIMLWE
 70
    -2
  9
$DIMTMOVE
 70
     0
  9
$LUNITS
 70
     2
  9
$LUPREC
 70
     2
  9
$SKETCHINC
 40
1.0
  9
$FILLETRAD
 40
10.0
  9
$AUNITS
 70
     0
  9
$AUPREC
 70
     2
  9
$MENU
  1
.
  9
$ELEVATION
 40
0.0
  9
$PELEVATION
 40
0.0
  9
$THICKNESS
 40
0.0
  9
$LIMCHECK
 70
     0
  9
$CHAMFERA
 40
0.0
  9
$CHAMFERB
 40
0.0
  9
$CHAMFERC
 40
0.0
  9
$CHAMFERD
 40
0.0
  9
$SKPOLY
 70
     0
  9
$TDCREATE
 40
2459741.607910671
  9
$TDUCREATE
 40
2459741.482910671
  9
$TDUPDATE
 40
2459741.607910671
  9
$TDUUPDATE
 40
2459741.482910671
  9
$TDINDWG
 40
0.0000000116
  9
$TDUSRTIMER
 40
0.0000000116
  9
$USRTIMER
 70
     1
  9
$ANGBASE
 50
0.0
  9
$ANGDIR
 70
     0
  9
$PDMODE
 70
     0
  9
$PDSIZE
 40
-1.0
  9
$PLINEWID
 40
0.0
  9
$SPLFRAME
 70
     0
  9
$SPLINETYPE
 70
     6
  9
$SPLINESEGS
 70
     8
  9
$HANDSEED
  5
104
  9
$SURFTAB1
 70
     6
  9
$SURFTAB2
 70
     6
  9
$SURFTYPE
 70
     6
  9
$SURFU
 70
     6
  9
$SURFV
 70
     6
  9
$UCSBASE
  2

  9
$UCSNAME
  2

  9
$UCSORG
 10
0.0
 20
0.0
 30
0.0
  9
$UCSXDIR
 10
1.0
 20
0.0
 30
0.0
  9
$UCSYDIR
 10
0.0
 20
1.0
 30
0.0
  9
$UCSORTHOREF
  2

  9
$UCSORTHOVIEW
 70
     0
  9
$UCSORGTOP
 10
0.0
 20
0.0
 30
0.0
  9
$UCSORGBOTTOM
 10
0.0
 20
0.0
 30
0.0
  9
$UCSORGLEFT
 10
0.0
 20
0.0
 30
0.0
  9
$UCSORGRIGHT
 10
0.0
 20
0.0
 30
0.0
  9
$UCSORGFRONT
 10
0.0
 20
0.0
 30
0.0
  9
$UCSORGBACK
 10
0.0
 20
0.0
 30
0.0
  9
$PUCSBASE
  2

  9
$PUCSNAME
  2

  9
$PUCSORG
 10
0.0
 20
0.0
 30
0.0
  9
$PUCSXDIR
 10
1.0
 20
0.0
 30
0.0
  9
$PUCSYDIR
 10
0.0
 20
1.0
 30
0.0
  9
$PUCSORTHOREF
  2

  9
$PUCSORTHOVIEW
 70
     0
  9
$PUCSORGTOP
 10
0.0
 20
0.0
 30
0.0
  9
$PUCSORGBOTTOM
 10
0.0
 20
0.0
 30
0.0
  9
$PUCSORGLEFT
 10
0.0
 20
0.0
 30
0.0
  9
$PUCSORGRIGHT
 10
0.0
 20
0.0
 30
0.0
  9
$PUCSORGFRONT
 10
0.0
 20
0.0
 30
0.0
  9
$PUCSORGBACK
 10
0.0
 20
0.0
 30
0.0
  9
$USERI1
 70
     0
  9
$USERI2
 70
     0
  9
$USERI3
 70
     0
  9
$USERI4
 70
     0
  9
$USERI5
 70
     0
  9
$USERR1
 40
0.0
  9
$USERR2
 40
0.0
  9
$USERR3
 40
0.0
  9
$USERR4
 40
0.0
  9
$USERR5
 40
0.0
  9
$WORLDVIEW
 70
     1
  9
$SHADEDGE
 70
     3
  9
$SHADEDIF
 70
    70
  9
$TILEMODE
 70
     1
  9
$MAXACTVP
 70
    64
  9
$PINSBASE
 10
0.0
 20
0.0
 30
0.0
  9
$PLIMCHECK
 70
     0
  9
$PEXTMIN
 10
1.0000000000E+20
 20
1.0000000000E+20
 30
1.0000000000E+20
  9
$PEXTMAX
 10
-1.0000000000E+20
 20
-1.0000000000E+20
 30
-1.0000000000E+20
  9
$PLIMMIN
 10
0.0
 20
0.0
  9
$PLIMMAX
 10
420.0
 20
297.0
  9
$UNITMODE
 70
     0
  9
$VISRETAIN
 70
     1
  9
$PLINEGEN
 70
     0
  9
$PSLTSCALE
 70
     1
  9
$TREEDEPTH
 70
  3020
  9
$CMLSTYLE
  2
Standard
  9
$CMLJUST
 70
     0
  9
$CMLSCALE
 40
20.0
  9
$PROXYGRAPHICS
 70
     1
  9
$MEASUREMENT
 70
     1
  9
$CELWEIGHT
370
    -1
  9
$ENDCAPS
280
     0
  9
$JOINSTYLE
280
     0
  9
$LWDISPLAY
290
     1
  9
$INSUNITS
 70
     4
  9
$HYPERLINKBASE
  1

  9
$STYLESHEET
  1

  9
$XEDIT
290
     1
  9
$CEPSNTYPE
380
     0
  9
$PSTYLEMODE
290
     1
  9
$FINGERPRINTGUID
  2
{f7a0eb49-c243-4d48-9c56-4de6bfb51557}
  9
$VERSIONGUID
  2
{FAEB1C32-E019-11D5-929B-00C0DF256EC4}
  9
$EXTNAMES
290
     1
  9
$PSVPSCALE
 40
0.0
  9
$OLESTARTUP
290
     0
  0
ENDSEC
  0
SECTION
  2
CLASSES
  0
CLASS
  1
ACDBDICTIONARYWDFLT
  2
AcDbDictionaryWithDefault
  3
ObjectDBX Classes
 90
        0
280
     0
281
     0
  0
CLASS
  1
VISUALSTYLE
  2
AcDbVisualStyle
  3
ObjectDBX Classes
 90
     4095
280
     0
281
     0
  0
CLASS
  1
MATERIAL
  2
AcDbMaterial
  3
ObjectDBX Classes
 90
     1153
280
     0
281
     0
  0
CLASS
  1
SCALE
  2
AcDbScale
  3
ObjectDBX Classes
 90
     1153
280
     0
281
     0
  0
CLASS
  1
TABLESTYLE
  2
AcDbTableStyle
  3
ObjectDBX Classes
 90
     4095
280
     0
281
     0
  0
CLASS
  1
MLEADERSTYLE
  2
AcDbMLeaderStyle
  3
ACDB_MLEADERSTYLE_CLASS
 90
     4095
280
     0
281
     0
  0
CLASS
  1
SUN
  2
AcDbSun
  3
SCENEOE
 90
     1153
280
     0
281
     0
  0
CLASS
  1
ACDBPLACEHOLDER
  2
AcDbPlaceHolder
  3
ObjectDBX Classes
 90
        0
280
     0
281
     0
  0
CLASS
  1
LAYOUT
  2
AcDbLayout
  3
ObjectDBX Classes
 90
        0
280
     0
281
     0
  0
ENDSEC
  0
SECTION
  2
TABLES
  0
TABLE
  2
VPORT
  5
8
330
0
100
AcDbSymbolTable
 70
     1
  0
VPORT
  5
29
330
8
100
AcDbSymbolTableRecord
100
AcDbViewportTableRecord
  2
*Active
 70
     0
 10
0.0
 20
0.0
 11
1.0
 21
1.0
 12
139.7
 22
107.95
 13
0.0
 23
0.0
 14
10.0
 24
10.0
 15
10.0
 25
10.0
 16
0.0
 26
0.0
 36
1.0
 17
0.0
 27
0.0
 37
0.0
 40
215.9
 41
1.2941176471
 42
50.0
 43
0.0
 44
0.0
 50
0.0
 51
0.0
 71
     0
 72
  2000
 73
     1
 74
     3
 75
     0
 76
     0
 77
     0
 78
     0
281
     0
 65
     1
110
0.0
120
0.0
130
0.0
111
1.0
121
0.0
131
0.0
112
0.0
122
1.0
132
0.0
 79
     0
146
0.0
  0
ENDTAB
  0
TABLE
  2
LTYPE
  5
5
330
0
100
AcDbSymbolTable
 70
     6
  0
LTYPE
  5
14
330
5
100
AcDbSymbolTableRecord
100
AcDbLinetypeTableRecord
  2
ByBlock
 70
     0
  3

 72
    65
 73
     0
 40
0.0
  0
LTYPE
  5
15
330
5
100
AcDbSymbolTableRecord
100
AcDbLinetypeTableRecord
  2
ByLayer
 70
     0
  3

 72
    65
 73
     0
 40
0.0
  0
LTYPE
  5
16
330
5
100
AcDbSymbolTableRecord
100
AcDbLinetypeTableRecord
  2
Continuous
 70
     0
  3
Solid line
 72
    65
 73
     0
 40
0.0
  0
LTYPE
  5
6E
330
5
100
AcDbSymbolTableRecord
100
AcDbLinetypeTableRecord
  2
HIDDEN
 70
     0
  3
Hidden __ __ __ __ __ __ __ __ __ __ __ __ __ __
 72
    65
 73
     2
 40
1.905
 49
1.27
 74
     0
 49
-0.635
 74
     0
  0
LTYPE
  5
6F
330
5
100
AcDbSymbolTableRecord
100
AcDbLinetypeTableRecord
  2
PHANTOM
 70
     0
  3
Phantom ______  __  __  ______  __  __  ______
 72
    65
 73
     6
 40
12.7
 49
6.35
 74
     0
 49
-1.27
 74
     0
 49
1.27
 74
     0
 49
-1.27
 74
     0
 49
1.27
 74
     0
 49
-1.27
 74
     0
  0
LTYPE
  5
70
330
5
100
AcDbSymbolTableRecord
100
AcDbLinetypeTableRecord
  2
CENTER
 70
     0
  3
Center ____ _ ____ _ ____ _ ____ _ ____ _ ____
 72
    65
 73
     4
 40
10.16
 49
6.35
 74
     0
 49
-1.27
 74
     0
 49
1.27
 74
     0
 49
-1.27
 74
     0
  0
LTYPE
  5
71
330
5
100
AcDbSymbolTableRecord
100
AcDbLinetypeTableRecord
  2
CENTERX2
 70
     0
  3
Center (2x) ________  __  ________  __  _____
 72
    65
 73
     4
 40
20.32
 49
12.7
 74
     0
 49
-2.54
 74
     0
 49
2.54
 74
     0
 49
-2.54
 74
     0
  0
LTYPE
  5
72
330
5
100
AcDbSymbolTableRecord
100
AcDbLinetypeTableRecord
  2
DOT2
 70
     0
  3
Dot (.5x) ........................................
 72
    65
 73
     2
 40
0.635
 49
0.0
 74
     0
 49
-0.635
 74
     0
  0
ENDTAB
  0
TABLE
  2
LAYER
  5
2
330
0
100
AcDbSymbolTable
 70
    17
  0
LAYER
  5
10
330
2
100
AcDbSymbolTableRecord
100
AcDbLayerTableRecord
  2
0
 70
     0
 62
     7
  6
Continuous
370
    -3
390
F
  0
LAYER
  5
73
330
2
100
AcDbSymbolTableRecord
100
AcDbLayerTableRecord
  2
FORMAT
 70
     0
 62
     7
  6
Continuous
370
    -3
390
F
  0
LAYER
  5
74
330
2
100
AcDbSymbolTableRecord
100
AcDbLayerTableRecord
  2
YARDIMCI_GEOMETRI
 70
     0
 62
    -6
  6
Continuous
290
     0
370
    -3
390
F
  0
LAYER
  5
75
330
2
100
AcDbSymbolTableRecord
100
AcDbLayerTableRecord
  2
SAYFA_CERCEVESI
 70
     0
 62
     7
  6
Continuous
370
    25
390
F
  0
LAYER
  5
76
330
2
100
AcDbSymbolTableRecord
100
AcDbLayerTableRecord
  2
ANTET
 70
     0
 62
     7
  6
Continuous
370
    -3
390
F
  0
LAYER
  5
77
330
2
100
AcDbSymbolTableRecord
100
AcDbLayerTableRecord
  2
OLCU
 70
     0
 62
   150
  6
Continuous
370
    -3
390
F
  0
LAYER
  5
78
330
2
100
AcDbSymbolTableRecord
100
AcDbLayerTableRecord
  2
METIN
 70
     0
 62
    96
  6
Continuous
370
    -3
390
F
  0
LAYER
  5
79
330
2
100
AcDbSymbolTableRecord
100
AcDbLayerTableRecord
  2
BALON
 70
     0
 62
     5
  6
Continuous
370
    -3
390
F
  0
LAYER
  5
7A
330
2
100
AcDbSymbolTableRecord
100
AcDbLayerTableRecord
  2
VURGU
 70
     0
 62
     7
  6
Continuous
370
    -3
390
F
  0
LAYER
  5
7B
330
2
100
AcDbSymbolTableRecord
100
AcDbLayerTableRecord
  2
SILIK
 70
     0
 62
     7
  6
Continuous
370
    -3
390
F
  0
LAYER
  5
7C
330
2
100
AcDbSymbolTableRecord
100
AcDbLayerTableRecord
  2
MODEL
 70
     0
 62
     7
  6
Continuous
370
    -3
390
F
  0
LAYER
  5
7D
330
2
100
AcDbSymbolTableRecord
100
AcDbLayerTableRecord
  2
DETAYLANDıRMA
 70
     0
 62
   190
  6
Continuous
370
    -3
390
F
  0
LAYER
  5
7E
330
2
100
AcDbSymbolTableRecord
100
AcDbLayerTableRecord
  2
TOLERANS
 70
     0
 62
   230
  6
Continuous
370
    -3
390
F
  0
LAYER
  5
7F
330
2
100
AcDbSymbolTableRecord
100
AcDbLayerTableRecord
  2
MERKEZ_CIZGILERI
 70
     0
 62
    30
  6
Continuous
370
    -3
390
F
  0
LAYER
  5
80
330
2
100
AcDbSymbolTableRecord
100
AcDbLayerTableRecord
  2
KESIT-DETAY_CIZGILERI
 70
     0
 62
     7
  6
Continuous
370
    -3
390
F
  0
LAYER
  5
81
330
2
100
AcDbSymbolTableRecord
100
AcDbLayerTableRecord
  2
\U+041E\U+0421\U+0415\U+0412\U+042B\U+0415
 70
     0
 62
     7
  6
Continuous
370
    -3
390
F
  0
LAYER
  5
82
330
2
100
AcDbSymbolTableRecord
100
AcDbLayerTableRecord
  2
\U+0412\U+041E\U+0414\U+042F\U+041D\U+042B\U+0415_\U+0417\U+041D\U+0410\U+041A\U+0418
 70
     0
 62
    11
  6
Continuous
370
    -3
390
F
  0
ENDTAB
  0
TABLE
  2
STYLE
  5
3
330
0
100
AcDbSymbolTable
 70
     1
  0
STYLE
  5
11
330
3
100
AcDbSymbolTableRecord
100
AcDbTextStyleTableRecord
  2
Standard
 70
     0
 40
0.0
 41
1.0
 50
0.0
 71
     0
 42
3.5
  3
txt
  4

  0
ENDTAB
  0
TABLE
  2
VIEW
  5
6
330
0
100
AcDbSymbolTable
 70
     0
  0
ENDTAB
  0
TABLE
  2
UCS
  5
7
330
0
100
AcDbSymbolTable
 70
     0
  0
ENDTAB
  0
TABLE
  2
APPID
  5
9
330
0
100
AcDbSymbolTable
 70
     1
  0
APPID
  5
12
330
9
100
AcDbSymbolTableRecord
100
AcDbRegAppTableRecord
  2
ACAD
 70
     0
  0
ENDTAB
  0
TABLE
  2
DIMSTYLE
  5
A
330
0
100
AcDbSymbolTable
 70
     1
100
AcDbDimStyleTable
  0
DIMSTYLE
105
27
330
A
100
AcDbSymbolTableRecord
100
AcDbDimStyleTableRecord
  2
ISO-25
 70
     0
 41
2.5
 42
0.625
 43
3.75
 44
1.25
 73
     0
 74
     0
 77
     1
 78
     8
140
2.5
141
2.5
143
0.0393700787
147
0.625
171
     3
172
     1
178
     0
271
     2
272
     2
274
     3
278
    44
283
     0
284
     8
340
11
  0
ENDTAB
  0
TABLE
  2
BLOCK_RECORD
  5
1
330
0
100
AcDbSymbolTable
 70
     5
  0
BLOCK_RECORD
  5
1F
330
1
100
AcDbSymbolTableRecord
100
AcDbBlockTableRecord
  2
*Model_Space
340
22
  0
BLOCK_RECORD
  5
1B
330
1
100
AcDbSymbolTableRecord
100
AcDbBlockTableRecord
  2
*Paper_Space
340
1E
  0
BLOCK_RECORD
  5
23
330
1
100
AcDbSymbolTableRecord
100
AcDbBlockTableRecord
  2
*Paper_Space0
340
26
  0
BLOCK_RECORD
  5
8C
330
1
100
AcDbSymbolTableRecord
100
AcDbBlockTableRecord
  2
SW_CENTERMARKSYMBOL_0
340
0
102
{BLKREFS
331
97
102
}
  0
BLOCK_RECORD
  5
AA
330
1
100
AcDbSymbolTableRecord
100
AcDbBlockTableRecord
  2
SW_CENTERMARKSYMBOL_1
340
0
102
{BLKREFS
331
B5
102
}
  0
BLOCK_RECORD
  5
DA
330
1
100
AcDbSymbolTableRecord
100
AcDbBlockTableRecord
  2
SW_CENTERMARKSYMBOL_2
340
0
102
{BLKREFS
331
E5
102
}
  0
BLOCK_RECORD
  5
E6
330
1
100
AcDbSymbolTableRecord
100
AcDbBlockTableRecord
  2
SW_CENTERMARKSYMBOL_3
340
0
102
{BLKREFS
331
F1
102
}
  0
ENDTAB
  0
ENDSEC
  0
SECTION
  2
BLOCKS
  0
BLOCK
  5
20
330
1F
100
AcDbEntity
  8
0
100
AcDbBlockBegin
  2
*Model_Space
 70
     0
 10
0.0
 20
0.0
 30
0.0
  3
*Model_Space
  1

  0
ENDBLK
  5
21
330
1F
100
AcDbEntity
  8
0
100
AcDbBlockEnd
  0
BLOCK
  5
1C
330
1B
100
AcDbEntity
 67
     1
  8
0
100
AcDbBlockBegin
  2
*Paper_Space
 70
     0
 10
0.0
 20
0.0
 30
0.0
  3
*Paper_Space
  1

  0
ENDBLK
  5
1D
330
1B
100
AcDbEntity
 67
     1
  8
0
100
AcDbBlockEnd
  0
BLOCK
  5
24
330
23
100
AcDbEntity
  8
0
100
AcDbBlockBegin
  2
*Paper_Space0
 70
     0
 10
0.0
 20
0.0
 30
0.0
  3
*Paper_Space0
  1

  0
ENDBLK
  5
25
330
23
100
AcDbEntity
  8
0
100
AcDbBlockEnd
  0
BLOCK
  5
8D
330
8C
100
AcDbEntity
  8
0
100
AcDbBlockBegin
  2
SW_CENTERMARKSYMBOL_0
 70
     0
 10
0.0
 20
0.0
 30
0.0
  3
SW_CENTERMARKSYMBOL_0
  1

  0
LINE
  5
8F
330
8C
100
AcDbEntity
  8
FORMAT
 62
     0
100
AcDbLine
 10
0.0
 20
0.0
 30
0.0
 11
0.0
 21
2.5
 31
0.0
  0
LINE
  5
90
330
8C
100
AcDbEntity
  8
FORMAT
 62
     0
100
AcDbLine
 10
0.0
 20
0.0
 30
0.0
 11
-2.5
 21
0.0
 31
0.0
  0
LINE
  5
91
330
8C
100
AcDbEntity
  8
FORMAT
 62
     0
100
AcDbLine
 10
0.0
 20
0.0
 30
0.0
 11
0.0
 21
-2.5
 31
0.0
  0
LINE
  5
92
330
8C
100
AcDbEntity
  8
FORMAT
 62
     0
100
AcDbLine
 10
0.0
 20
0.0
 30
0.0
 11
2.5
 21
0.0
 31
0.0
  0
LINE
  5
93
330
8C
100
AcDbEntity
  8
FORMAT
 62
     0
100
AcDbLine
 10
0.0
 20
5.0
 30
0.0
 11
0.0
 21
71.5
 31
0.0
  0
LINE
  5
94
330
8C
100
AcDbEntity
  8
FORMAT
 62
     0
100
AcDbLine
 10
-5.0
 20
0.0
 30
0.0
 11
-71.5
 21
0.0
 31
0.0
  0
LINE
  5
95
330
8C
100
AcDbEntity
  8
FORMAT
 62
     0
100
AcDbLine
 10
0.0
 20
-5.0
 30
0.0
 11
0.0
 21
-71.5
 31
0.0
  0
LINE
  5
96
330
8C
100
AcDbEntity
  8
FORMAT
 62
     0
100
AcDbLine
 10
5.0
 20
0.0
 30
0.0
 11
71.5
 21
0.0
 31
0.0
  0
ENDBLK
  5
8E
330
8C
100
AcDbEntity
  8
0
100
AcDbBlockEnd
  0
BLOCK
  5
AB
330
AA
100
AcDbEntity
  8
0
100
AcDbBlockBegin
  2
SW_CENTERMARKSYMBOL_1
 70
     0
 10
0.0
 20
0.0
 30
0.0
  3
SW_CENTERMARKSYMBOL_1
  1

  0
LINE
  5
AD
330
AA
100
AcDbEntity
  8
FORMAT
 62
     0
100
AcDbLine
 10
0.0
 20
0.0
 30
0.0
 11
0.0
 21
2.5
 31
0.0
  0
LINE
  5
AE
330
AA
100
AcDbEntity
  8
FORMAT
 62
     0
100
AcDbLine
 10
0.0
 20
0.0
 30
0.0
 11
-2.5
 21
0.0
 31
0.0
  0
LINE
  5
AF
330
AA
100
AcDbEntity
  8
FORMAT
 62
     0
100
AcDbLine
 10
0.0
 20
0.0
 30
0.0
 11
0.0
 21
-2.5
 31
0.0
  0
LINE
  5
B0
330
AA
100
AcDbEntity
  8
FORMAT
 62
     0
100
AcDbLine
 10
0.0
 20
0.0
 30
0.0
 11
2.5
 21
0.0
 31
0.0
  0
LINE
  5
B1
330
AA
100
AcDbEntity
  8
FORMAT
 62
     0
100
AcDbLine
 10
0.0
 20
5.0
 30
0.0
 11
0.0
 21
57.5
 31
0.0
  0
LINE
  5
B2
330
AA
100
AcDbEntity
  8
FORMAT
 62
     0
100
AcDbLine
 10
-5.0
 20
0.0
 30
0.0
 11
-57.5
 21
0.0
 31
0.0
  0
LINE
  5
B3
330
AA
100
AcDbEntity
  8
FORMAT
 62
     0
100
AcDbLine
 10
0.0
 20
-5.0
 30
0.0
 11
0.0
 21
-57.5
 31
0.0
  0
LINE
  5
B4
330
AA
100
AcDbEntity
  8
FORMAT
 62
     0
100
AcDbLine
 10
5.0
 20
0.0
 30
0.0
 11
57.5
 21
0.0
 31
0.0
  0
ENDBLK
  5
AC
330
AA
100
AcDbEntity
  8
0
100
AcDbBlockEnd
  0
BLOCK
  5
DB
330
DA
100
AcDbEntity
  8
0
100
AcDbBlockBegin
  2
SW_CENTERMARKSYMBOL_2
 70
     0
 10
0.0
 20
0.0
 30
0.0
  3
SW_CENTERMARKSYMBOL_2
  1

  0
LINE
  5
DD
330
DA
100
AcDbEntity
  8
FORMAT
 62
     0
100
AcDbLine
 10
0.0
 20
0.0
 30
0.0
 11
0.0
 21
2.5
 31
0.0
  0
LINE
  5
DE
330
DA
100
AcDbEntity
  8
FORMAT
 62
     0
100
AcDbLine
 10
0.0
 20
0.0
 30
0.0
 11
-2.5
 21
0.0
 31
0.0
  0
LINE
  5
DF
330
DA
100
AcDbEntity
  8
FORMAT
 62
     0
100
AcDbLine
 10
0.0
 20
0.0
 30
0.0
 11
0.0
 21
-2.5
 31
0.0
  0
LINE
  5
E0
330
DA
100
AcDbEntity
  8
FORMAT
 62
     0
100
AcDbLine
 10
0.0
 20
0.0
 30
0.0
 11
2.5
 21
0.0
 31
0.0
  0
LINE
  5
E1
330
DA
100
AcDbEntity
  8
FORMAT
 62
     0
100
AcDbLine
 10
0.0
 20
5.0
 30
0.0
 11
0.0
 21
9.5
 31
0.0
  0
LINE
  5
E2
330
DA
100
AcDbEntity
  8
FORMAT
 62
     0
100
AcDbLine
 10
-5.0
 20
0.0
 30
0.0
 11
-9.5
 21
0.0
 31
0.0
  0
LINE
  5
E3
330
DA
100
AcDbEntity
  8
FORMAT
 62
     0
100
AcDbLine
 10
0.0
 20
-5.0
 30
0.0
 11
0.0
 21
-9.5
 31
0.0
  0
LINE
  5
E4
330
DA
100
AcDbEntity
  8
FORMAT
 62
     0
100
AcDbLine
 10
5.0
 20
0.0
 30
0.0
 11
9.5
 21
0.0
 31
0.0
  0
ENDBLK
  5
DC
330
DA
100
AcDbEntity
  8
0
100
AcDbBlockEnd
  0
BLOCK
  5
E7
330
E6
100
AcDbEntity
  8
0
100
AcDbBlockBegin
  2
SW_CENTERMARKSYMBOL_3
 70
     0
 10
0.0
 20
0.0
 30
0.0
  3
SW_CENTERMARKSYMBOL_3
  1

  0
LINE
  5
E9
330
E6
100
AcDbEntity
  8
FORMAT
 62
     0
100
AcDbLine
 10
0.0
 20
0.0
 30
0.0
 11
0.0
 21
2.5
 31
0.0
  0
LINE
  5
EA
330
E6
100
AcDbEntity
  8
FORMAT
 62
     0
100
AcDbLine
 10
0.0
 20
0.0
 30
0.0
 11
-2.5
 21
0.0
 31
0.0
  0
LINE
  5
EB
330
E6
100
AcDbEntity
  8
FORMAT
 62
     0
100
AcDbLine
 10
0.0
 20
0.0
 30
0.0
 11
0.0
 21
-2.5
 31
0.0
  0
LINE
  5
EC
330
E6
100
AcDbEntity
  8
FORMAT
 62
     0
100
AcDbLine
 10
0.0
 20
0.0
 30
0.0
 11
2.5
 21
0.0
 31
0.0
  0
LINE
  5
ED
330
E6
100
AcDbEntity
  8
FORMAT
 62
     0
100
AcDbLine
 10
0.0
 20
5.0
 30
0.0
 11
0.0
 21
9.5
 31
0.0
  0
LINE
  5
EE
330
E6
100
AcDbEntity
  8
FORMAT
 62
     0
100
AcDbLine
 10
-5.0
 20
0.0
 30
0.0
 11
-9.5
 21
0.0
 31
0.0
  0
LINE
  5
EF
330
E6
100
AcDbEntity
  8
FORMAT
 62
     0
100
AcDbLine
 10
0.0
 20
-5.0
 30
0.0
 11
0.0
 21
-9.5
 31
0.0
  0
LINE
  5
F0
330
E6
100
AcDbEntity
  8
FORMAT
 62
     0
100
AcDbLine
 10
5.0
 20
0.0
 30
0.0
 11
9.5
 21
0.0
 31
0.0
  0
ENDBLK
  5
E8
330
E6
100
AcDbEntity
  8
0
100
AcDbBlockEnd
  0
ENDSEC
  0
SECTION
  2
ENTITIES
  0
LINE
  5
83
330
1F
100
AcDbEntity
  8
0
  6
Continuous
 62
     7
370
    25
100
AcDbLine
 10
105.8542622654
 20
178.6368521145
 30
0.0
 11
105.8542622654
 21
201.9839090837
 31
0.0
  0
LINE
  5
84
330
1F
100
AcDbEntity
  8
0
  6
Continuous
 62
     7
370
    25
100
AcDbLine
 10
91.8542622654
 20
201.9839090837
 30
0.0
 11
91.8542622654
 21
178.6282234848
 31
0.0
  0
LINE
  5
85
330
1F
100
AcDbEntity
  8
0
  6
Continuous
 62
     7
370
    25
100
AcDbLine
 10
140.539428731
 20
54.9839090837
 30
0.0
 11
267.8542622654
 21
54.9839090837
 31
0.0
  0
LINE
  5
86
330
1F
100
AcDbEntity
  8
0
  6
Continuous
 62
     7
370
    25
100
AcDbLine
 10
267.8542622654
 20
164.9839090837
 30
0.0
 11
140.5680103848
 21
164.9839090837
 31
0.0
  0
CIRCLE
  5
87
330
1F
100
AcDbEntity
  8
0
  6
Continuous
 62
     7
370
    25
100
AcDbCircle
 10
98.8542622654
 20
109.9839090837
 30
0.0
 40
55.00000000000003
  0
CIRCLE
  5
88
330
1F
100
AcDbEntity
  8
0
  6
Continuous
 62
     7
370
    25
100
AcDbCircle
 10
98.8542622654
 20
109.9839090837
 30
0.0
 40
69.0
  0
LINE
  5
89
330
1F
100
AcDbEntity
  8
0
  6
Continuous
 62
     7
370
    25
100
AcDbLine
 10
98.8542622654
 20
201.9839090837
 30
0.0
 11
91.8542622654
 21
201.9839090837
 31
0.0
  0
LINE
  5
8A
330
1F
100
AcDbEntity
  8
0
  6
Continuous
 62
     7
370
    25
100
AcDbLine
 10
105.8542622654
 20
201.9839090837
 30
0.0
 11
98.8542622654
 21
201.9839090837
 31
0.0
  0
LINE
  5
8B
330
1F
100
AcDbEntity
  8
0
  6
Continuous
 62
     7
370
    25
100
AcDbLine
 10
267.8542622654
 20
164.9839090837
 30
0.0
 11
267.8542622654
 21
54.9839090837
 31
0.0
  0
INSERT
  5
97
330
1F
100
AcDbEntity
  8
FORMAT
 62
     7
100
AcDbBlockReference
  2
SW_CENTERMARKSYMBOL_0
 10
98.8542622654
 20
109.9839090837
 30
0.0
  0
LINE
  5
98
330
1F
100
AcDbEntity
  8
0
  6
Continuous
 62
     7
370
    25
100
AcDbLine
 10
-286.7697218874
 20
178.9839090837
 30
0.0
 11
-287.8569277063
 21
178.9839090837
 31
0.0
  0
LINE
  5
99
330
1F
100
AcDbEntity
  8
0
  6
Continuous
 62
     7
370
    25
100
AcDbLine
 10
-42.7697218874
 20
178.9839090837
 30
0.0
 11
-272.8569277063
 21
178.9839090837
 31
0.0
  0
LINE
  5
9A
330
1F
100
AcDbEntity
  8
0
  6
Continuous
 62
     7
370
    25
100
AcDbLine
 10
-27.8569277063
 20
178.9839090837
 30
0.0
 11
-28.8569277063
 21
178.9839090837
 31
0.0
  0
LINE
  5
9B
330
1F
100
AcDbEntity
  8
0
  6
Continuous
 62
     7
370
    25
100
AcDbLine
 10
-287.8569277063
 20
40.9839090837
 30
0.0
 11
-27.8569277063
 21
40.9839090837
 31
0.0
  0
LINE
  5
9C
330
1F
100
AcDbEntity
  8
0
  6
Continuous
 62
     7
370
    25
100
AcDbLine
 10
-28.8569277063
 20
178.9839090837
 30
0.0
 11
-28.8569277063
 21
201.9839090837
 31
0.0
  0
LINE
  5
9D
330
1F
100
AcDbEntity
  8
0
  6
Continuous
 62
     7
370
    25
100
AcDbLine
 10
-42.8569277063
 20
201.9839090837
 30
0.0
 11
-42.8569277063
 21
178.9751747433
 31
0.0
  0
LINE
  5
9E
330
1F
100
AcDbEntity
  8
0
  6
Continuous
 62
     7
370
    25
100
AcDbLine
 10
-272.8569277063
 20
178.9839090837
 30
0.0
 11
-272.8569277063
 21
201.9839090837
 31
0.0
  0
LINE
  5
9F
330
1F
100
AcDbEntity
  8
0
  6
Continuous
 62
     7
370
    25
100
AcDbLine
 10
-286.8569277063
 20
201.9839090837
 30
0.0
 11
-286.8569277063
 21
178.9751747433
 31
0.0
  0
CIRCLE
  5
A0
330
1F
100
AcDbEntity
  8
0
  6
Continuous
 62
     7
370
    25
100
AcDbCircle
 10
-157.8569277063
 20
109.9839090837
 30
0.0
 40
45.00000000000001
  0
CIRCLE
  5
A1
330
1F
100
AcDbEntity
  8
0
  6
Continuous
 62
     7
370
    25
100
AcDbCircle
 10
-157.8569277063
 20
109.9839090837
 30
0.0
 40
55.00000000000001
  0
LINE
  5
A2
330
1F
100
AcDbEntity
  8
0
  6
Continuous
 62
     7
370
    25
100
AcDbLine
 10
-287.8569277063
 20
109.9839090837
 30
0.0
 11
-287.8569277063
 21
178.9839090837
 31
0.0
  0
LINE
  5
A3
330
1F
100
AcDbEntity
  8
0
  6
Continuous
 62
     7
370
    25
100
AcDbLine
 10
-287.8569277063
 20
40.9839090837
 30
0.0
 11
-287.8569277063
 21
109.9839090837
 31
0.0
  0
SPLINE
  5
A4
330
1F
100
AcDbEntity
  8
0
  6
Continuous
 62
     7
370
    25
100
AcDbSpline
210
0.0
220
0.0
230
1.0
 70
     8
 71
     3
 72
    17
 73
    13
 74
     0
 42
0.00000001
 43
0.00000001
 40
0.0
 40
0.0
 40
0.0
 40
0.0
 40
0.1069961512857103
 40
0.2139791165783833
 40
0.3213049282158965
 40
0.4288619275343056
 40
0.5360438579658021
 40
0.6428293933890152
 40
0.7498156527814172
 40
0.8572855683583325
 40
0.9647697587261225
 40
1.0
 40
1.0
 40
1.0
 40
1.0
 10
-28.85692770633139
 20
178.9839090836853
 30
0.0
 10
-28.9339167629937
 20
178.9758785778757
 30
0.0
 10
-29.08788538834003
 20
178.95981855592
 30
0.0
 10
-30.28762718338285
 20
178.8480393157797
 30
0.0
 10
-32.05769562872815
 20
178.7231542550488
 30
0.0
 10
-34.27380154488167
 20
178.6327256928089
 30
0.0
 10
-36.66312130353504
 20
178.6189362447114
 30
0.0
 10
-38.95343246703853
 20
178.686367053176
 30
0.0
 10
-40.91157086975701
 20
178.8071971397428
 30
0.0
 10
-42.25200014471588
 20
178.9225288522222
 30
0.0
 10
-42.8925375802165
 20
178.9874731935139
 30
0.0
 10
-42.79403745933411
 20
178.977586465078
 30
0.0
 10
-42.76972188743104
 20
178.9751458441527
 30
0.0
  0
SPLINE
  5
A5
330
1F
100
AcDbEntity
  8
0
  6
Continuous
 62
     7
370
    25
100
AcDbSpline
210
0.0
220
0.0
230
1.0
 70
     8
 71
     3
 72
    17
 73
    13
 74
     0
 42
0.00000001
 43
0.00000001
 40
0.0
 40
0.0
 40
0.0
 40
0.0
 40
0.1069961512857103
 40
0.2139791165783827
 40
0.3213049282158957
 40
0.4288619275343048
 40
0.536043857965802
 40
0.6428293933890149
 40
0.7498156527814165
 40
0.8572855683583327
 40
0.9647697587261224
 40
1.0
 40
1.0
 40
1.0
 40
1.0
 10
-272.8569277063314
 20
178.9839090836853
 30
0.0
 10
-272.9339167629937
 20
178.9758785778757
 30
0.0
 10
-273.0878853883401
 20
178.9598185559201
 30
0.0
 10
-274.2876271833828
 20
178.8480393157797
 30
0.0
 10
-276.0576956287281
 20
178.7231542550488
 30
0.0
 10
-278.2738015448817
 20
178.6327256928089
 30
0.0
 10
-280.663121303535
 20
178.6189362447115
 30
0.0
 10
-282.9534324670385
 20
178.686367053176
 30
0.0
 10
-284.911570869757
 20
178.8071971397428
 30
0.0
 10
-286.2520001447159
 20
178.9225288522222
 30
0.0
 10
-286.8925375802165
 20
178.9874731935139
 30
0.0
 10
-286.7940374593342
 20
178.977586465078
 30
0.0
 10
-286.7697218874311
 20
178.9751458441527
 30
0.0
  0
LINE
  5
A6
330
1F
100
AcDbEntity
  8
0
  6
Continuous
 62
     7
370
    25
100
AcDbLine
 10
-27.8569277063
 20
109.9839090837
 30
0.0
 11
-27.8569277063
 21
178.9839090837
 31
0.0
  0
LINE
  5
A7
330
1F
100
AcDbEntity
  8
0
  6
Continuous
 62
     7
370
    25
100
AcDbLine
 10
-27.8569277063
 20
40.9839090837
 30
0.0
 11
-27.8569277063
 21
109.9839090837
 31
0.0
  0
LINE
  5
A8
330
1F
100
AcDbEntity
  8
0
  6
Continuous
 62
     7
370
    25
100
AcDbLine
 10
-28.8569277063
 20
201.9839090837
 30
0.0
 11
-42.8569277063
 21
201.9839090837
 31
0.0
  0
LINE
  5
A9
330
1F
100
AcDbEntity
  8
0
  6
Continuous
 62
     7
370
    25
100
AcDbLine
 10
-272.8569277063
 20
201.9839090837
 30
0.0
 11
-286.8569277063
 21
201.9839090837
 31
0.0
  0
INSERT
  5
B5
330
1F
100
AcDbEntity
  8
FORMAT
 62
     7
100
AcDbBlockReference
  2
SW_CENTERMARKSYMBOL_1
 10
-157.8569277063
 20
109.9839090837
 30
0.0
  0
LINE
  5
B6
330
1F
100
AcDbEntity
  8
0
  6
Continuous
 62
     7
370
    25
100
AcDbLine
 10
167.8542622654
 20
444.6365662833
 30
0.0
 11
167.8542622654
 21
519.6365662833
 31
0.0
  0
LINE
  5
B7
330
1F
100
AcDbEntity
  8
0
  6
Continuous
 62
     7
370
    25
100
AcDbLine
 10
167.8542622654
 20
259.6365662833
 30
0.0
 11
167.8542622654
 21
334.6686322438
 31
0.0
  0
LINE
  5
B8
330
1F
100
AcDbEntity
  8
0
  6
Continuous
 62
     7
370
    25
100
AcDbLine
 10
29.8542622654
 20
519.6365662833
 30
0.0
 11
29.8542622654
 21
259.6365662833
 31
0.0
  0
LINE
  5
B9
330
1F
100
AcDbEntity
  8
0
  6
Continuous
 62
     7
370
    25
100
AcDbLine
 10
167.8286906306
 20
334.6365662833
 30
0.0
 11
267.8542622654
 21
334.6365662833
 31
0.0
  0
LINE
  5
BA
330
1F
100
AcDbEntity
  8
0
  6
Continuous
 62
     7
370
    25
100
AcDbLine
 10
267.8542622654
 20
444.6365662833
 30
0.0
 11
167.8542622654
 21
444.6365662833
 31
0.0
  0
SPLINE
  5
BB
330
1F
100
AcDbEntity
  8
0
  6
Continuous
 62
     7
370
    25
100
AcDbSpline
210
0.0
220
0.0
230
1.0
 70
     8
 71
     3
 72
    49
 73
    45
 74
     0
 42
0.00000001
 43
0.00000001
 40
0.0
 40
0.0
 40
0.0
 40
0.0
 40
0.021344078926417
 40
0.0426888236082568
 40
0.0647450254487879
 40
0.0868031659599699
 40
0.1081236361766714
 40
0.1294461645459748
 40
0.1512883179466473
 40
0.1731325389253122
 40
0.2018226723460368
 40
0.2305171737791106
 40
0.2600319540870972
 40
0.2895486325662083
 40
0.3186659752661507
 40
0.3477806845570821
 40
0.3777734487109694
 40
0.407752487419951
 40
0.4413590426281522
 40
0.4585774995194518
 40
0.4757929339981519
 40
0.4926452673841384
 40
0.509496934631573
 40
0.5269449443958941
 40
0.5443954274795058
 40
0.5640733510366747
 40
0.5837566458194615
 40
0.6039861849382336
 40
0.6242196191007726
 40
0.6534506218347584
 40
0.6826879399087201
 40
0.712737452153026
 40
0.7427868776622133
 40
0.7726553563987523
 40
0.8025199875723135
 40
0.8333964764066513
 40
0.8642653648257212
 40
0.8855242105860899
 40
0.9067810218005782
 40
0.9286186764725988
 40
0.9504543580901859
 40
0.9717392943621972
 40
0.9930233729383285
 40
1.0
 40
1.0
 40
1.0
 40
1.0
 10
167.8542622654241
 20
444.6365662833149
 30
0.0
 10
167.8327359064957
 20
444.6096080520864
 30
0.0
 10
167.789682517198
 20
444.5556907487596
 30
0.0
 10
167.4445247977085
 20
444.1219410226556
 30
0.0
 10
166.890167239028
 20
443.4230376399517
 30
0.0
 10
166.1229100851916
 20
442.4496195733549
 30
0.0
 10
165.1755260898665
 20
441.2383504621747
 30
0.0
 10
164.0649755166874
 20
439.8038524665851
 30
0.0
 10
162.7931500770215
 20
438.140571917112
 30
0.0
 10
161.2303174809895
 20
436.0642191740583
 30
0.0
 10
159.3599485693597
 20
433.5262614391379
 30
0.0
 10
157.1602104113256
 20
430.444955302374
 30
0.0
 10
154.8327935367965
 20
427.053103047228
 30
0.0
 10
152.4404061050184
 20
423.3755776731564
 30
0.0
 10
150.0572547645215
 20
419.4595142062591
 30
0.0
 10
147.7262337119032
 20
415.2674723391231
 30
0.0
 10
145.5105779899908
 20
410.771607495749
 30
0.0
 10
143.442738824973
 20
405.7622490394518
 30
0.0
 10
142.0117741440937
 20
401.1725653521784
 30
0.0
 10
141.1586246771972
 20
397.162999469703
 30
0.0
 10
140.7177232509393
 20
394.0807693365447
 30
0.0
 10
140.504461082444
 20
390.9828104681774
 30
0.0
 10
140.5175386288303
 20
387.8589688920029
 30
0.0
 10
140.771225262521
 20
384.7143809838179
 30
0.0
 10
141.275568523896
 20
381.4431871541909
 30
0.0
 10
142.0425988620991
 20
378.1136755293955
 30
0.0
 10
143.0697592247941
 20
374.7257155839383
 30
0.0
 10
144.2929893548805
 20
371.4246580800917
 30
0.0
 10
145.8793384259723
 20
367.7436481875812
 30
0.0
 10
147.842740843619
 20
363.78344794207
 30
0.0
 10
150.1884322557759
 20
359.590110910782
 30
0.0
 10
152.6147126083392
 20
355.61787190039
 30
0.0
 10
155.0559277067224
 20
351.8883285175208
 30
0.0
 10
157.4277728418587
 20
348.4451968684094
 30
0.0
 10
159.7059078486746
 20
345.2707295379485
 30
0.0
 10
161.8323368084706
 20
342.3994503740392
 30
0.0
 10
163.5476842551235
 20
340.1417106934809
 30
0.0
 10
164.8635261753266
 20
338.4361514713456
 30
0.0
 10
165.8581217228395
 20
337.1610080183186
 30
0.0
 10
166.6763294736325
 20
336.1206719970608
 30
0.0
 10
167.2988077235507
 20
335.334661743809
 30
0.0
 10
167.6863254810679
 20
334.8471272090359
 30
0.0
 10
167.8653604102543
 20
334.6226680973873
 30
0.0
 10
167.835949503873
 20
334.6595318186482
 30
0.0
 10
167.8286889305526
 20
334.6686322437629
 30
0.0
  0
LINE
  5
BC
330
1F
100
AcDbEntity
  8
0
  6
Continuous
 62
     7
370
    25
100
AcDbLine
 10
29.8542622654
 20
519.6365662833
 30
0.0
 11
167.8542622654
 21
519.6365662833
 31
0.0
  0
LINE
  5
BD
330
1F
100
AcDbEntity
  8
0
  6
Continuous
 62
     7
370
    25
100
AcDbLine
 10
29.8542622654
 20
259.6365662833
 30
0.0
 11
167.8542622654
 21
259.6365662833
 31
0.0
  0
LINE
  5
BE
330
1F
100
AcDbEntity
  8
0
  6
Continuous
 62
     7
370
    25
100
AcDbLine
 10
267.8542622654
 20
444.6365662833
 30
0.0
 11
267.8542622654
 21
334.6365662833
 31
0.0
  0
LINE
  5
BF
330
1F
100
AcDbEntity
  8
0
  6
Continuous
 62
     7
370
    25
100
AcDbLine
 10
353.7754477077
 20
40.9839090837
 30
0.0
 11
613.7754477077
 21
40.9839090837
 31
0.0
  0
LINE
  5
C0
330
1F
100
AcDbEntity
  8
0
  6
Continuous
 62
     7
370
    25
100
AcDbLine
 10
354.7754477077
 20
178.9839090837
 30
0.0
 11
353.7754477077
 21
178.9839090837
 31
0.0
  0
LINE
  5
C1
330
1F
100
AcDbEntity
  8
0
  6
Continuous
 62
     7
370
    25
100
AcDbLine
 10
598.7754477077
 20
178.9839090837
 30
0.0
 11
368.6882418888
 21
178.9839090837
 31
0.0
  0
LINE
  5
C2
330
1F
100
AcDbEntity
  8
0
  6
Continuous
 62
     7
370
    25
100
AcDbLine
 10
613.7754477077
 20
178.9839090837
 30
0.0
 11
612.6882418888
 21
178.9839090837
 31
0.0
  0
LINE
  5
C3
330
1F
100
AcDbEntity
  8
0
  6
Continuous
 62
     7
370
    25
100
AcDbLine
 10
368.7754477077
 20
178.9839090837
 30
0.0
 11
368.7754477077
 21
201.9839090837
 31
0.0
  0
LINE
  5
C4
330
1F
100
AcDbEntity
  8
0
  6
Continuous
 62
     7
370
    25
100
AcDbLine
 10
354.7754477077
 20
201.9839090837
 30
0.0
 11
354.7754477077
 21
178.9839090837
 31
0.0
  0
LINE
  5
C5
330
1F
100
AcDbEntity
  8
0
  6
Continuous
 62
     7
370
    25
100
AcDbLine
 10
612.7754477077
 20
178.9839090837
 30
0.0
 11
612.7754477077
 21
201.9839090837
 31
0.0
  0
LINE
  5
C6
330
1F
100
AcDbEntity
  8
0
  6
Continuous
 62
     7
370
    25
100
AcDbLine
 10
598.7754477077
 20
201.9839090837
 30
0.0
 11
598.7754477077
 21
178.9839090837
 31
0.0
  0
LINE
  5
C7
330
1F
100
AcDbEntity
  8
0
  6
Continuous
 62
     7
370
    25
100
AcDbLine
 10
613.7754477077
 20
178.9839090837
 30
0.0
 11
613.7754477077
 21
40.9839090837
 31
0.0
  0
ARC
  5
C8
330
1F
100
AcDbEntity
  8
0
  6
Continuous
 62
     7
370
    25
100
AcDbCircle
 10
361.7751882632
 20
247.7929730533
 30
0.0
 40
69.16417896727083
100
AcDbArc
 50
264.191452851
 51
275.7363694733
  0
ARC
  5
C9
330
1F
100
AcDbEntity
  8
0
  6
Continuous
 62
     7
370
    25
100
AcDbCircle
 10
605.7751882632
 20
247.7929730533
 30
0.0
 40
69.16417896729308
100
AcDbArc
 50
264.191452851
 51
275.7363694733
  0
LINE
  5
CA
330
1F
100
AcDbEntity
  8
0
  6
Continuous
 62
     7
370
    25
100
AcDbLine
 10
353.7754477077
 20
178.9839090837
 30
0.0
 11
353.7754477077
 21
40.9839090837
 31
0.0
  0
LINE
  5
CB
330
1F
100
AcDbEntity
  8
0
  6
Continuous
 62
     7
370
    25
100
AcDbLine
 10
368.7754477077
 20
201.9839090837
 30
0.0
 11
354.7754477077
 21
201.9839090837
 31
0.0
  0
LINE
  5
CC
330
1F
100
AcDbEntity
  8
0
  6
Continuous
 62
     7
370
    25
100
AcDbLine
 10
612.7754477077
 20
201.9839090837
 30
0.0
 11
598.7754477077
 21
201.9839090837
 31
0.0
  0
LINE
  5
CD
330
1F
100
AcDbEntity
  8
0
  6
Continuous
 62
     7
370
    25
100
AcDbLine
 10
29.8542622654
 20
-28.6566647416
 30
0.0
 11
29.8542622654
 21
-288.6566647416
 31
0.0
  0
LINE
  5
CE
330
1F
100
AcDbEntity
  8
0
  6
Continuous
 62
     7
370
    25
100
AcDbLine
 10
167.8542622654
 20
-103.688730702
 30
0.0
 11
167.8542622654
 21
-28.6566647416
 31
0.0
  0
LINE
  5
CF
330
1F
100
AcDbEntity
  8
0
  6
Continuous
 62
     7
370
    25
100
AcDbLine
 10
167.8542622654
 20
-288.6566647416
 30
0.0
 11
167.8542622654
 21
-213.6566647416
 31
0.0
  0
LINE
  5
D0
330
1F
100
AcDbEntity
  8
0
  6
Continuous
 62
     7
370
    25
100
AcDbLine
 10
167.8542622654
 20
-213.6566647416
 30
0.0
 11
267.8542622654
 21
-213.6566647416
 31
0.0
  0
LINE
  5
D1
330
1F
100
AcDbEntity
  8
0
  6
Continuous
 62
     7
370
    25
100
AcDbLine
 10
267.8542622654
 20
-103.6566647416
 30
0.0
 11
167.8286906306
 21
-103.6566647416
 31
0.0
  0
CIRCLE
  5
D2
330
1F
100
AcDbEntity
  8
0
  6
Continuous
 62
     7
370
    25
100
AcDbCircle
 10
98.8542622654
 20
-36.6566647416
 30
0.0
 40
5.000000000000007
  0
CIRCLE
  5
D3
330
1F
100
AcDbEntity
  8
0
  6
Continuous
 62
     7
370
    25
100
AcDbCircle
 10
98.8542622654
 20
-36.6566647416
 30
0.0
 40
7.000000000000021
  0
CIRCLE
  5
D4
330
1F
100
AcDbEntity
  8
0
  6
Continuous
 62
     7
370
    25
100
AcDbCircle
 10
98.8542622654
 20
-280.6566647416
 30
0.0
 40
5.0
  0
CIRCLE
  5
D5
330
1F
100
AcDbEntity
  8
0
  6
Continuous
 62
     7
370
    25
100
AcDbCircle
 10
98.8542622654
 20
-280.6566647416
 30
0.0
 40
7.0
  0
LWPOLYLINE
  5
D6
330
1F
100
AcDbEntity
  8
0
  6
Continuous
 62
     7
370
    25
100
AcDbPolyline
 90
       45
 70
   128
 43
0.0
 10
167.8286889306
 20
-103.688730702
 10
167.7990188686
 20
-103.7259150407
 10
167.5229808135
 20
-104.0728493103
 10
167.0829045762
 20
-104.6274879049
 10
166.4698284943
 20
-105.4038263529
 10
165.6717932677
 20
-106.4207933447
 10
164.7167627834
 20
-107.6481460953
 10
163.5716930643
 20
-109.1354597442
 10
162.2909316623
 20
-110.8214159791
 10
160.8627974809
 20
-112.732125608
 10
159.3321173686
 20
-114.8209377842
 10
157.4398696846
 20
-117.4706597117
 10
155.4655922795
 20
-120.3311812357
 10
153.399982131
 20
-123.4535404602
 10
151.3180969405
 20
-126.7747898154
 10
148.8998106004
 20
-130.9325430871
 10
146.5899941765
 20
-135.3607401821
 10
144.4083585265
 20
-140.239119807
 10
142.5747493628
 20
-145.4097408711
 10
141.2061604252
 20
-151.0617139362
 10
140.7739279991
 20
-154.0505373681
 10
140.5495926281
 20
-157.0753443916
 10
140.5431084387
 20
-160.0405162759
 10
140.7448417345
 20
-162.9949418487
 10
141.1633926111
 20
-166.007184201
 10
141.7758553233
 20
-168.9650666851
 10
142.794616421
 20
-172.611488179
 10
144.0353950811
 20
-176.1304955325
 10
145.488521728
 20
-179.6035017597
 10
147.0757129993
 20
-182.9323379738
 10
149.4374023698
 20
-187.3398390988
 10
151.890862938
 20
-191.4725299733
 10
154.4299560152
 20
-195.435814479
 10
156.9180707585
 20
-199.0968162833
 10
158.8899924068
 20
-201.8805192661
 10
160.7497918771
 20
-204.428452842
 10
162.50664325
 20
-206.7777167996
 10
164.0726080408
 20
-208.8306881569
 10
165.1583692146
 20
-210.2341684551
 10
166.0818358221
 20
-211.415992318
 10
166.8434997864
 20
-212.3832176847
 10
167.4006380795
 20
-213.0864877914
 10
167.7392191382
 20
-213.5122686793
 10
167.8542622654
 20
-213.6566647416
 10
167.8542622654
 20
-213.6566647416
  0
LINE
  5
D7
330
1F
100
AcDbEntity
  8
0
  6
Continuous
 62
     7
370
    25
100
AcDbLine
 10
167.8542622654
 20
-288.6566647416
 30
0.0
 11
29.8542622654
 21
-288.6566647416
 31
0.0
  0
LINE
  5
D8
330
1F
100
AcDbEntity
  8
0
  6
Continuous
 62
     7
370
    25
100
AcDbLine
 10
167.8542622654
 20
-28.6566647416
 30
0.0
 11
29.8542622654
 21
-28.6566647416
 31
0.0
  0
LINE
  5
D9
330
1F
100
AcDbEntity
  8
0
  6
Continuous
 62
     7
370
    25
100
AcDbLine
 10
267.8542622654
 20
-103.6566647416
 30
0.0
 11
267.8542622654
 21
-213.6566647416
 31
0.0
  0
INSERT
  5
E5
330
1F
100
AcDbEntity
  8
FORMAT
 62
     7
100
AcDbBlockReference
  2
SW_CENTERMARKSYMBOL_2
 10
98.8542622654
 20
-36.6566647416
 30
0.0
  0
INSERT
  5
F1
330
1F
100
AcDbEntity
  8
FORMAT
 62
     7
100
AcDbBlockReference
  2
SW_CENTERMARKSYMBOL_3
 10
98.8542622654
 20
-280.6566647416
 30
0.0
  0
LINE
  5
F2
330
1F
100
AcDbEntity
  8
0
  6
Continuous
 62
     7
370
    25
100
AcDbLine
 10
533.572647117
 20
-161.0390879454
 30
0.0
 11
612.7817154688
 21
-115.3126661001
 31
0.0
  0
LINE
  5
F3
330
1F
100
AcDbEntity
  8
0
  6
Continuous
 62
     7
370
    25
100
AcDbLine
 10
557.7861851738
 20
-20.0472912383
 30
0.0
 11
478.5764036493
 21
-65.7741247893
 31
0.0
  0
LINE
  5
F4
330
1F
100
AcDbEntity
  8
0
  6
Continuous
 62
     7
370
    25
100
AcDbLine
 10
479.7840421363
 20
-65.0769699301
 30
0.0
 11
408.3562190224
 21
-23.8425653455
 31
0.0
  0
LINE
  5
F5
330
1F
100
AcDbEntity
  8
0
  6
Continuous
 62
     7
370
    25
100
AcDbLine
 10
592.2039821309
 20
-129.9756198824
 30
0.0
 11
589.7929822729
 21
-128.5837792905
 31
0.0
  0
LINE
  5
F6
330
1F
100
AcDbEntity
  8
0
  6
Continuous
 62
     7
370
    25
100
AcDbLine
 10
339.3618264705
 20
-143.357308354
 30
0.0
 11
523.209589579
 21
-249.490362891
 31
0.0
  0
LINE
  5
F7
330
1F
100
AcDbEntity
  8
0
  6
Continuous
 62
     7
370
    25
100
AcDbLine
 10
386.515876996
 20
-21.8807354691
 30
0.0
 11
386.515876996
 21
-11.7438146036
 31
0.0
  0
LINE
  5
F8
330
1F
100
AcDbEntity
  8
0
  6
Continuous
 62
     7
370
    25
100
AcDbLine
 10
372.515876996
 20
-11.7438146036
 30
0.0
 11
372.515876996
 21
-28.055355293
 31
0.0
  0
LWPOLYLINE
  5
F9
330
1F
100
AcDbEntity
  8
0
  6
Continuous
 62
     7
370
    25
100
AcDbPolyline
 90
       82
 70
   128
 43
0.0
 10
617.1037554747
 20
-86.0491611852
 10
617.0080714485
 20
-83.1465163886
 10
616.7215948251
 20
-80.1508540143
 10
616.2460485086
 20
-77.0801903283
 10
615.5842924905
 20
-73.9529926633
 10
614.7403066492
 20
-70.7880683541
 10
613.7191668151
 20
-67.6044516277
 10
612.5270142431
 20
-64.4212891299
 10
611.1710186792
 20
-61.2577247744
 10
609.6593352401
 20
-58.1327846095
 10
608.0010553681
 20
-55.065262393
 10
606.2061521533
 20
-52.0736065645
 10
604.2854203549
 20
-49.1758092942
 10
602.2504114799
 20
-46.3892982758
 10
600.1133643112
 20
-43.7308319144
 10
597.8871313018
 20
-41.2163985395
 10
595.5851012791
 20
-38.8611202494
 10
593.2211189224
 20
-36.6791619648
 10
590.8094014999
 20
-34.6836462395
 10
588.3644533638
 20
-32.88657434
 10
585.9009787199
 20
-31.298754068
 10
583.4337931947
 20
-29.9297347616
 10
580.9777347321
 20
-28.7877498639
 10
578.5475743567
 20
-27.8796674064
 10
576.157927339
 20
-27.210948704
 10
573.8231652974
 20
-26.7856155095
 10
571.5573297654
 20
-26.6062258269
 10
569.3740477446
 20
-26.6738585268
 10
567.2864497499
 20
-26.9881068582
 10
565.3070908413
 20
-27.5470808947
 10
563.4478751161
 20
-28.3474189006
 10
561.7199841166
 20
-29.384307549
 10
560.1338095825
 20
-30.6515108695
 10
558.6988909541
 20
-32.1414077523
 10
557.4238580008
 20
-33.8450377822
 10
556.3163789208
 20
-35.7521551278
 10
555.3831142238
 20
-37.851290161
 10
554.6296766733
 20
-40.1298184366
 10
554.0605975314
 20
-42.5740366175
 10
553.679299307
 20
-45.169244888
 10
553.4880751726
 20
-47.8998353602
 10
553.4880751726
 20
-50.7493859416
 10
553.679299307
 20
-53.7007590999
 10
554.0605975314
 20
-56.7362049295
 10
554.6296766733
 20
-59.837467902
 10
555.3831142238
 20
-62.9858966571
 10
556.3163789208
 20
-66.1625561737
 10
557.4238580008
 20
-69.3483416478
 10
558.6988909541
 20
-72.5240933906
 10
560.1338095825
 20
-75.6707120575
 10
561.7199841166
 20
-78.7692735136
 10
563.4478751161
 20
-81.8011426457
 10
565.3070908413
 20
-84.748085436
 10
567.2864497499
 20
-87.592378624
 10
569.3740477446
 20
-90.3169162956
 10
571.5573297654
 20
-92.9053127608
 10
573.8231652974
 20
-95.3420010986
 10
576.157927339
 20
-97.6123267787
 10
578.5475743567
 20
-99.7026357954
 10
580.9777347321
 20
-101.6003567841
 10
583.4337931947
 20
-103.2940766276
 10
585.9009787199
 20
-104.7736090955
 10
588.3644533638
 20
-106.0300561054
 10
590.8094014999
 20
-107.0558612372
 10
593.2211189224
 20
-107.844855178
 10
595.5851012791
 20
-108.3922928256
 10
597.8871313018
 20
-108.6948818254
 10
600.1133643112
 20
-108.7508023717
 10
602.2504114799
 20
-108.5597181516
 10
604.2854203549
 20
-108.1227783682
 10
606.2061521533
 20
-107.4426108287
 10
608.0010553681
 20
-106.5233061408
 10
609.6593352401
 20
-105.370393111
 10
611.1710186792
 20
-103.9908054939
 10
612.5270142431
 20
-102.3928402918
 10
613.7191668151
 20
-100.5861078554
 10
614.7403066492
 20
-98.5814740863
 10
615.5842924905
 20
-96.3909950876
 10
616.2460485086
 20
-94.027844658
 10
616.7215948251
 20
-91.5062350621
 10
617.0080714485
 20
-88.8413315568
 10
617.1037554747
 20
-86.0491611852
  0
LWPOLYLINE
  5
FA
330
1F
100
AcDbEntity
  8
0
  6
Continuous
 62
     7
370
    25
100
AcDbPolyline
 90
       91
 70
   128
 43
0.0
 10
624.1748232865
 20
-90.1312017443
 10
624.0800870746
 20
-86.9437662695
 10
623.7963399842
 20
-83.6624795579
 10
623.3249644027
 20
-80.3033277085
 10
622.6682568244
 20
-76.8826761715
 10
621.8294166626
 20
-73.4171900173
 10
620.8125306624
 20
-69.9237527462
 10
619.6225529901
 20
-66.4193840332
 10
618.2652810973
 20
-62.9211568107
 10
616.7473274762
 20
-59.4461140898
 10
615.0760874443
 20
-56.0111859295
 10
613.2597031151
 20
-52.6331069546
 10
611.3070237303
 20
-49.328334826
 10
609.2275625478
 20
-46.1129700616
 10
607.0314504932
 20
-43.0026775953
 10
604.7293868039
 20
-40.0126104592
 10
602.3325869027
 20
-37.1573359599
 10
599.8527277577
 20
-34.4507647078
 10
597.3018909936
 20
-31.9060828459
 10
594.6925040305
 20
-29.5356878084
 10
592.0372795396
 20
-27.3511279218
 10
589.3491535075
 20
-25.3630461422
 10
586.6412222141
 20
-23.5811282042
 10
583.9266784285
 20
-22.0140554328
 10
581.2187471351
 20
-20.6694624492
 10
578.530621103
 20
-19.553899975
 10
575.875396612
 20
-18.6728029187
 10
573.2660096489
 20
-18.0304638964
 10
570.7151728848
 20
-17.6300123194
 10
568.2353137399
 20
-17.4733991474
 10
565.8385138386
 20
-17.5613873841
 10
563.5364501493
 20
-17.8935483596
 10
561.3403380948
 20
-18.4682638191
 10
559.2608769122
 20
-19.2827338065
 10
557.3081975274
 20
-20.3329903061
 10
555.4918131982
 20
-21.6139165737
 10
553.8205731663
 20
-23.1192720653
 10
552.3026195452
 20
-24.8417228402
 10
550.9453476524
 20
-26.7728772914
 10
549.7553699801
 20
-28.9033270286
 10
548.7384839799
 20
-31.2226927147
 10
547.8996438182
 20
-33.7196746334
 10
547.2429362398
 20
-36.3821077396
 10
546.7715606583
 20
-39.1970209269
 10
546.4878135679
 20
-42.1507002213
 10
546.393077356
 20
-45.2287555941
 10
546.4878135679
 20
-48.4161910689
 10
546.7715606583
 20
-51.6974777805
 10
547.2429362398
 20
-55.0566296299
 10
547.8996438182
 20
-58.4772811669
 10
548.7384839799
 20
-61.9427673211
 10
549.7553699801
 20
-65.4362045923
 10
550.9453476524
 20
-68.9405733052
 10
552.3026195452
 20
-72.4388005278
 10
553.8205731663
 20
-75.9138432486
 10
555.4918131982
 20
-79.3487714089
 10
557.3081975274
 20
-82.7268503839
 10
559.2608769122
 20
-86.0316225124
 10
561.3403380948
 20
-89.2469872768
 10
563.5364501493
 20
-92.3572797431
 10
565.8385138386
 20
-95.3473468792
 10
568.2353137399
 20
-98.2026213785
 10
570.7151728848
 20
-100.9091926307
 10
573.2660096489
 20
-103.4538744926
 10
575.875396612
 20
-105.82426953
 10
578.530621103
 20
-108.0088294166
 10
581.2187471351
 20
-109.9969111962
 10
583.9266784285
 20
-111.7788291342
 10
586.6412222141
 20
-113.3459019056
 10
589.3491535075
 20
-114.6904948893
 10
592.0372795396
 20
-115.8060573634
 10
594.6925040305
 20
-116.6871544197
 10
597.3018909936
 20
-117.329493442
 10
599.8527277577
 20
-117.729945019
 10
602.3325869027
 20
-117.886558191
 10
604.7293868039
 20
-117.7985699544
 10
607.0314504932
 20
-117.4664089788
 10
609.2275625478
 20
-116.8916935194
 10
611.3070237303
 20
-116.0772235319
 10
613.2597031151
 20
-115.0269670323
 10
615.0760874443
 20
-113.7460407647
 10
616.7473274762
 20
-112.2406852732
 10
618.2652810973
 20
-110.5182344983
 10
619.6225529901
 20
-108.587080047
 10
620.8125306624
 20
-106.4566303099
 10
621.8294166626
 20
-104.1372646237
 10
622.6682568244
 20
-101.6402827051
 10
623.3249644027
 20
-98.9778495988
 10
623.7963399842
 20
-96.1629364115
 10
624.0800870746
 20
-93.2092571171
 10
624.1748232865
 20
-90.1312017443
  0
SPLINE
  5
FB
330
1F
100
AcDbEntity
  8
0
  6
Continuous
 62
     7
370
    25
100
AcDbSpline
210
0.0
220
0.0
230
1.0
 70
     8
 71
     3
 72
    39
 73
    35
 74
     0
 42
0.00000001
 43
0.00000001
 40
0.0
 40
0.0
 40
0.0
 40
0.0
 40
0.0283553412911574
 40
0.0567115670300483
 40
0.0860129546856599
 40
0.1153169178409286
 40
0.1436408952571801
 40
0.1719676069033631
 40
0.2009846338898656
 40
0.2300044076278127
 40
0.268118890226854
 40
0.3062391756755453
 40
0.3454491913268031
 40
0.384661728674605
 40
0.4233437534457275
 40
0.4620222797659905
 40
0.5018672909646739
 40
0.5416940680818577
 40
0.5863399553948613
 40
0.6092144595298514
 40
0.6320849484275911
 40
0.6544730620753807
 40
0.6768602907664545
 40
0.7000397530156519
 40
0.723222501038522
 40
0.7493643758080273
 40
0.7755133861834341
 40
0.8023880753116519
 40
0.8292679389566872
 40
0.8681009596582302
 40
0.9069423702097643
 40
0.9468627705351926
 40
0.9867830556341033
 40
1.0
 40
1.0
 40
1.0
 40
1.0
 10
475.6823992373473
 20
-86.04916118522333
 30
0.0
 10
475.6862401510854
 20
-87.13212220165074
 30
0.0
 10
475.6939220983655
 20
-89.2980780137646
 30
0.0
 10
475.7565661070015
 20
-92.8147298609672
 30
0.0
 10
475.8587754393607
 20
-96.50696058294062
 30
0.0
 10
476.0045532187892
 20
-100.3194502928916
 30
0.0
 10
476.1911481736646
 20
-104.1713541666421
 30
0.0
 10
476.420213592799
 20
-108.0628194749032
 30
0.0
 10
476.6970141554737
 20
-112.013404590576
 30
0.0
 10
477.0601277337086
 20
-116.4155802986417
 30
0.0
 10
477.5321843177018
 20
-121.2118026423818
 30
0.0
 10
478.1555470135385
 20
-126.4023061647495
 30
0.0
 10
478.9082164893078
 20
-131.5373633872762
 30
0.0
 10
479.816946243063
 20
-136.5593159314529
 30
0.0
 10
480.9008788026063
 20
-141.3932376097416
 30
0.0
 10
482.2168192404718
 20
-146.0563232492145
 30
0.0
 10
483.8291705728162
 20
-150.5238841460887
 30
0.0
 10
485.9091388105329
 20
-154.8970004096147
 30
0.0
 10
488.142690440296
 20
-158.3051092424729
 30
0.0
 10
490.3746138909764
 20
-160.8363253136243
 30
0.0
 10
492.2423153340982
 20
-162.5504917241916
 30
0.0
 10
494.2821039207358
 20
-164.0345292751988
 30
0.0
 10
496.5002407476096
 20
-165.2958841640632
 30
0.0
 10
498.9031835533988
 20
-166.3191594299799
 30
0.0
 10
501.5728920880086
 20
-167.1313100352205
 30
0.0
 10
504.4695819400638
 20
-167.6839717214393
 30
0.0
 10
507.5915540560774
 20
-167.9632067627668
 30
0.0
 10
510.7906679114419
 20
-167.9599105368153
 30
0.0
 10
514.5154281854108
 20
-167.6536189102125
 30
0.0
 10
518.7031024279785
 20
-166.9264032645704
 30
0.0
 10
523.3306912763318
 20
-165.6666877845318
 30
0.0
 10
527.8406196745766
 20
-163.9570780329723
 30
0.0
 10
531.2802115982493
 20
-162.3841871135471
 30
0.0
 10
533.0960620236507
 20
-161.2731205953128
 30
0.0
 10
533.5477226444817
 20
-160.9967624843195
 30
0.0
  0
SPLINE
  5
FC
330
1F
100
AcDbEntity
  8
0
  6
Continuous
 62
     7
370
    25
100
AcDbSpline
210
0.0
220
0.0
230
1.0
 70
     8
 71
     3
 72
    18
 73
    14
 74
     0
 42
0.00000001
 43
0.00000001
 40
0.0
 40
0.0
 40
0.0
 40
0.0
 40
0.0550158775501725
 40
0.1594308361162999
 40
0.2638348619491329
 40
0.3710352667349679
 40
0.4782179304801886
 40
0.5636064723416451
 40
0.6489870109325124
 40
0.7367293562543273
 40
0.8244643354202353
 40
0.9118644465750075
 40
1.0
 40
1.0
 40
1.0
 40
1.0
 10
478.6058236270462
 20
-65.82550004309228
 30
0.0
 10
478.4823834257263
 20
-65.880197732777
 30
0.0
 10
478.1246653380916
 20
-66.03870649040091
 30
0.0
 10
477.6606682159752
 20
-66.70056820282083
 30
0.0
 10
477.1657061156806
 20
-67.76111797920721
 30
0.0
 10
476.7532060999432
 20
-69.22767137262286
 30
0.0
 10
476.4325818168825
 20
-70.97111633618529
 30
0.0
 10
476.1892255307407
 20
-72.90870144873831
 30
0.0
 10
476.0050714514186
 20
-74.97449569545584
 30
0.0
 10
475.8610324850385
 20
-77.32953139544846
 30
0.0
 10
475.7585210565082
 20
-79.97361848585614
 30
0.0
 10
475.694336432231
 20
-82.86264038480098
 30
0.0
 10
475.6863894008752
 20
-84.9840249281427
 30
0.0
 10
475.6823992373473
 20
-86.04916118522333
 30
0.0
  0
LWPOLYLINE
  5
FD
330
1F
100
AcDbEntity
  8
0
  6
Continuous
 62
     7
370
    25
100
AcDbPolyline
 90
       91
 70
   128
 43
0.0
 10
412.7498957117
 20
-61.1487137746
 10
412.6551594998
 20
-58.0706584019
 10
412.3714124095
 20
-55.1169791075
 10
411.9000368279
 20
-52.3020659201
 10
411.2433292496
 20
-49.6396328139
 10
410.4044890879
 20
-47.1426508953
 10
409.3876030877
 20
-44.8232852091
 10
408.1976254153
 20
-42.6928354719
 10
406.8403535225
 20
-40.7616810207
 10
405.3223999015
 20
-39.0392302458
 10
403.6511598696
 20
-37.5338747542
 10
401.8347755403
 20
-36.2529484867
 10
399.8820961556
 20
-35.2026919871
 10
397.802634973
 20
-34.3882219996
 10
395.6065229184
 20
-33.8135065401
 10
393.3044592291
 20
-33.4813455646
 10
390.9076593279
 20
-33.3933573279
 10
388.427800183
 20
-33.5499704999
 10
385.8769634188
 20
-33.950422077
 10
383.2675764558
 20
-34.5927610992
 10
380.6123519648
 20
-35.4738581556
 10
377.9242259327
 20
-36.5894206297
 10
375.2162946393
 20
-37.9340136134
 10
372.5017508537
 20
-39.5010863847
 10
369.7938195603
 20
-41.2830043228
 10
367.1056935282
 20
-43.2710861024
 10
364.4504690372
 20
-45.455645989
 10
361.8410820741
 20
-47.8260410264
 10
359.29024531
 20
-50.3707228883
 10
356.8103861651
 20
-53.0772941404
 10
354.4135862639
 20
-55.9325686397
 10
352.1115225745
 20
-58.9226357758
 10
349.91541052
 20
-62.0329282422
 10
347.8359493374
 20
-65.2482930066
 10
345.8832699527
 20
-68.5530651351
 10
344.0668856234
 20
-71.9311441101
 10
342.3956455915
 20
-75.3660722704
 10
340.8776919704
 20
-78.8411149912
 10
339.5204200776
 20
-82.3393422138
 10
338.3304424053
 20
-85.8437109267
 10
337.3135564051
 20
-89.3371481979
 10
336.4747162434
 20
-92.8026343521
 10
335.8180086651
 20
-96.2232858891
 10
335.3466330835
 20
-99.5824377385
 10
335.0628859931
 20
-102.8637244501
 10
334.9681497812
 20
-106.0511599249
 10
335.0628859931
 20
-109.1292152977
 10
335.3466330835
 20
-112.082894592
 10
335.8180086651
 20
-114.8978077794
 10
336.4747162434
 20
-117.5602408856
 10
337.3135564051
 20
-120.0572228043
 10
338.3304424053
 20
-122.3765884904
 10
339.5204200776
 20
-124.5070382276
 10
340.8776919704
 20
-126.4381926788
 10
342.3956455915
 20
-128.1606434537
 10
344.0668856234
 20
-129.6659989453
 10
345.8832699527
 20
-130.9469252129
 10
347.8359493374
 20
-131.9971817124
 10
349.91541052
 20
-132.8116516999
 10
352.1115225745
 20
-133.3863671594
 10
354.4135862639
 20
-133.7185281349
 10
356.8103861651
 20
-133.8065163716
 10
359.29024531
 20
-133.6499031996
 10
361.8410820741
 20
-133.2494516225
 10
364.4504690372
 20
-132.6071126003
 10
367.1056935282
 20
-131.7260155439
 10
369.7938195603
 20
-130.6104530698
 10
372.5017508537
 20
-129.2658600861
 10
375.2162946393
 20
-127.6987873148
 10
377.9242259327
 20
-125.9168693768
 10
380.6123519648
 20
-123.9287875971
 10
383.2675764558
 20
-121.7442277105
 10
385.8769634188
 20
-119.3738326731
 10
388.427800183
 20
-116.8291508112
 10
390.9076593279
 20
-114.1225795591
 10
393.3044592291
 20
-111.2673050598
 10
395.6065229184
 20
-108.2772379237
 10
397.802634973
 20
-105.1669454573
 10
399.8820961556
 20
-101.9515806929
 10
401.8347755403
 20
-98.6468085644
 10
403.6511598696
 20
-95.2687295894
 10
405.3223999015
 20
-91.8338014292
 10
406.8403535225
 20
-88.3587587083
 10
408.1976254153
 20
-84.8605314857
 10
409.3876030877
 20
-81.3561627728
 10
410.4044890879
 20
-77.8627255016
 10
411.2433292496
 20
-74.3972393474
 10
411.9000368279
 20
-70.9765878104
 10
412.3714124095
 20
-67.617435961
 10
412.6551594998
 20
-64.3361492494
 10
412.7498957117
 20
-61.1487137746
  0
LWPOLYLINE
  5
FE
330
1F
100
AcDbEntity
  8
0
  6
Continuous
 62
     7
370
    25
100
AcDbPolyline
 90
      102
 70
   128
 43
0.0
 10
422.6493906484
 20
-55.4338569919
 10
422.5550104208
 20
-51.9856223481
 10
422.272234877
 20
-48.6596973455
 10
421.8021580206
 20
-45.4689493418
 10
421.1465984876
 20
-42.4257227212
 10
420.3080925104
 20
-39.5417911363
 10
419.2898841059
 20
-36.828311958
 10
418.0959125245
 20
-34.2957831103
 10
416.7307970103
 20
-31.9540024552
 10
415.19981893
 20
-29.8120298872
 10
413.5089013405
 20
-27.878152282
 10
411.6645860734
 20
-26.1598514363
 10
409.6740084262
 20
-24.6637751224
 10
407.544869557
 20
-23.3957113689
 10
405.2854066906
 20
-22.360566068
 10
402.9043612498
 20
-21.5623439959
 10
400.4109450369
 20
-21.0041333187
 10
397.8148045948
 20
-20.688093645
 10
395.1259838866
 20
-20.615447671
 10
392.3548854372
 20
-20.7864764498
 10
389.5122300882
 20
-21.2005183043
 10
386.6090155209
 20
-21.855971387
 10
383.6564737084
 20
-22.7502998772
 10
380.6660274615
 20
-23.8800437918
 10
377.6492462357
 20
-25.240832371
 10
374.6178013716
 20
-26.8274009882
 10
371.5834209404
 20
-28.6336115176
 10
368.5578443705
 20
-30.6524760816
 10
365.5527770299
 20
-32.8761840853
 10
362.5798449403
 20
-35.2961324345
 10
359.6505497985
 20
-37.9029588191
 10
356.7762244783
 20
-40.6865779343
 10
353.9679891859
 20
-43.6362204985
 10
351.2367084382
 20
-46.7404749176
 10
348.5929490298
 20
-49.9873314344
 10
346.0469391523
 20
-53.3642285916
 10
343.6085288232
 20
-56.8581018304
 10
341.2871517784
 20
-60.4554340337
 10
339.0917889748
 20
-64.1423078222
 10
337.0309338444
 20
-67.9044593975
 10
335.1125594356
 20
-71.7273337259
 10
333.3440875661
 20
-75.5961408493
 10
331.7323601101
 20
-79.4959131046
 10
330.283612528
 20
-83.4115630305
 10
329.0034497428
 20
-87.3279417381
 10
327.8968244556
 20
-91.229897519
 10
326.9680179846
 20
-95.1023344643
 10
326.2206237017
 20
-98.9302708678
 10
325.6575331301
 20
-102.6988971871
 10
325.2809247578
 20
-106.3936333393
 10
325.0922556095
 20
-110.0001851077
 10
325.0922556095
 20
-113.5045994444
 10
325.2809247578
 20
-116.8933184509
 10
325.6575331301
 20
-120.1532318319
 10
326.2206237017
 20
-123.2717276157
 10
326.9680179846
 20
-126.2367409479
 10
327.8968244556
 20
-129.0368007681
 10
329.0034497428
 20
-131.6610741886
 10
330.283612528
 20
-134.0994084054
 10
331.7323601101
 20
-136.3423699772
 10
333.3440875661
 20
-138.3812813213
 10
335.1125594356
 20
-140.2082542859
 10
337.0309338444
 20
-141.8162206675
 10
339.0917889748
 20
-143.1989595565
 10
341.2871517784
 20
-144.3511214048
 10
343.6085288232
 20
-145.268248722
 10
346.0469391523
 20
-145.9467933207
 10
348.5929490298
 20
-146.3841300437
 10
351.2367084382
 20
-146.5785669201
 10
353.9679891859
 20
-146.5293517114
 10
356.7762244783
 20
-146.2366748218
 10
359.6505497985
 20
-145.7016685612
 10
362.5798449403
 20
-144.9264027649
 10
365.5527770299
 20
-143.9138767858
 10
368.5578443705
 20
-142.66800789
 10
371.5834209404
 20
-141.1936161024
 10
374.6178013716
 20
-139.4964055583
 10
377.6492462357
 20
-137.5829424356
 10
380.6660274615
 20
-135.4606295515
 10
383.6564737084
 20
-133.1376777221
 10
386.6090155209
 20
-130.6230739968
 10
389.5122300882
 20
-127.926546889
 10
392.3548854372
 20
-125.0585287381
 10
395.1259838866
 20
-122.0301153493
 10
397.8148045948
 20
-118.8530230656
 10
400.4109450369
 20
-115.5395434398
 10
402.9043612498
 20
-112.1024956809
 10
405.2854066906
 20
-108.5551770591
 10
407.544869557
 20
-104.9113114608
 10
409.6740084262
 20
-101.1849962943
 10
411.6645860734
 20
-97.390647949
 10
413.5089013405
 20
-93.5429460215
 10
415.19981893
 20
-89.6567765231
 10
416.7307970103
 20
-85.7471742887
 10
418.0959125245
 20
-81.8292648098
 10
419.2898841059
 20
-77.918205717
 10
420.3080925104
 20
-74.0291281382
 10
421.1465984876
 20
-70.177078159
 10
421.8021580206
 20
-66.3769586125
 10
422.272234877
 20
-62.6434714229
 10
422.5550104208
 20
-58.9910607269
 10
422.6493906484
 20
-55.4338569919
  0
LWPOLYLINE
  5
FF
330
1F
100
AcDbEntity
  8
0
  6
Continuous
 62
     7
370
    25
100
AcDbPolyline
 90
       14
 70
   128
 43
0.0
 10
606.4971537569
 20
-161.5669115288
 10
606.4027735293
 20
-158.1186768851
 10
606.1199979855
 20
-154.7927518825
 10
605.6499211291
 20
-151.6020038788
 10
604.9943615961
 20
-148.5587772582
 10
604.1558556189
 20
-145.6748456732
 10
603.1376472144
 20
-142.961366495
 10
601.943675633
 20
-140.4288376472
 10
600.5785601188
 20
-138.0870569921
 10
599.0475820385
 20
-135.9450844241
 10
597.356664449
 20
-134.0112068189
 10
595.5123491819
 20
-132.2929059733
 10
593.5217715347
 20
-130.7968296594
 10
592.2039821309
 20
-129.9756198824
  0
LWPOLYLINE
  5
100
330
1F
100
AcDbEntity
  8
0
  6
Continuous
 62
     7
370
    25
100
AcDbPolyline
 90
       39
 70
   128
 43
0.0
 10
523.209589579
 20
-249.490362891
 10
525.1349148869
 20
-250.4841759418
 10
527.4562919317
 20
-251.401303259
 10
529.8947022608
 20
-252.0798478577
 10
532.4407121384
 20
-252.5171845806
 10
535.0844715467
 20
-252.711621457
 10
537.8157522944
 20
-252.6624062484
 10
540.6239875868
 20
-252.3697293587
 10
543.498312907
 20
-251.8347230981
 10
546.4276080488
 20
-251.0594573019
 10
549.4005401384
 20
-250.0469313227
 10
552.405607479
 20
-248.801062427
 10
555.4311840489
 20
-247.3266706393
 10
558.4655644801
 20
-245.6294600953
 10
561.4970093443
 20
-243.7159969726
 10
564.51379057
 20
-241.5936840884
 10
567.5042368169
 20
-239.2707322591
 10
570.4567786294
 20
-236.7561285338
 10
573.3599931967
 20
-234.059601426
 10
576.2026485457
 20
-231.1915832751
 10
578.9737469951
 20
-228.1631698863
 10
581.6625677033
 20
-224.9860776025
 10
584.2587081454
 20
-221.6725979767
 10
586.7521243583
 20
-218.2355502179
 10
589.1331697991
 20
-214.688231596
 10
591.3926326655
 20
-211.0443659978
 10
593.5217715347
 20
-207.3180508312
 10
595.5123491819
 20
-203.5237024859
 10
597.356664449
 20
-199.6760005585
 10
599.0475820385
 20
-195.7898310601
 10
600.5785601188
 20
-191.8802288257
 10
601.943675633
 20
-187.9623193468
 10
603.1376472144
 20
-184.051260254
 10
604.1558556189
 20
-180.1621826752
 10
604.9943615961
 20
-176.310132696
 10
605.6499211291
 20
-172.5100131494
 10
606.1199979855
 20
-168.7765259598
 10
606.4027735293
 20
-165.1241152638
 10
606.4971537569
 20
-161.5669115288
  0
ARC
  5
101
330
1F
100
AcDbEntity
  8
0
  6
Continuous
 62
     7
370
    25
100
AcDbCircle
 10
376.0190764334
 20
-12.0931592419
 30
0.0
 40
3.520574949456328
100
AcDbArc
 50
114.3746582936
 51
174.3052007488
  0
LWPOLYLINE
  5
102
330
1F
100
AcDbEntity
  8
0
  6
Continuous
 62
     7
370
    25
100
AcDbPolyline
 90
       13
 70
   128
 43
0.0
 10
386.515876996
 20
-11.7438146036
 10
386.3813739588
 20
-10.955451884
 10
385.9830337236
 20
-10.1973855017
 10
385.3361642821
 20
-9.4987475225
 10
384.4656244643
 20
-8.8863862122
 10
383.4048686271
 20
-8.3838342725
 10
382.1946610225
 20
-8.0104044926
 10
380.8815092501
 20
-7.7804475696
 10
379.515876996
 20
-7.702800619
 10
378.1502447419
 20
-7.7804475696
 10
376.8370929694
 20
-8.0104044926
 10
375.6268853648
 20
-8.3838342725
 10
374.5661295277
 20
-8.8863862122
  0
ENDSEC
  0
SECTION
  2
OBJECTS
  0
DICTIONARY
  5
C
330
0
100
AcDbDictionary
281
     1
  3
ACAD_GROUP
350
D
  3
ACAD_LAYOUT
350
1A
  3
ACAD_MLINESTYLE
350
17
  3
ACAD_PLOTSETTINGS
350
19
  3
ACAD_PLOTSTYLENAME
350
E
  3
ACAD_SCALELIST
350
47
  3
DWGPROPS
350
103
  0
DICTIONARY
  5
D
102
{ACAD_REACTORS
330
C
102
}
330
C
100
AcDbDictionary
281
     1
  0
DICTIONARY
  5
1A
102
{ACAD_REACTORS
330
C
102
}
330
C
100
AcDbDictionary
281
     1
  3
Layout1
350
1E
  3
Layout2
350
26
  3
Model
350
22
  0
DICTIONARY
  5
17
102
{ACAD_REACTORS
330
C
102
}
330
C
100
AcDbDictionary
281
     1
  3
Standard
350
18
  0
DICTIONARY
  5
19
102
{ACAD_REACTORS
330
C
102
}
330
C
100
AcDbDictionary
281
     1
  0
ACDBDICTIONARYWDFLT
  5
E
102
{ACAD_REACTORS
330
C
102
}
330
C
100
AcDbDictionary
281
     1
  3
Normal
350
F
100
AcDbDictionaryWithDefault
340
F
  0
DICTIONARY
  5
47
102
{ACAD_REACTORS
330
C
102
}
330
C
100
AcDbDictionary
281
     1
  3
A0
350
48
  3
A1
350
49
  3
A2
350
4A
  3
A3
350
4B
  3
A4
350
4C
  3
A5
350
4D
  3
A6
350
4E
  3
A7
350
4F
  3
A8
350
50
  3
A9
350
51
  3
B0
350
52
  3
B1
350
53
  3
B2
350
54
  3
B3
350
55
  3
B4
350
56
  3
B5
350
57
  3
B6
350
58
  3
B7
350
59
  3
B8
350
5A
  3
B9
350
5B
  3
C0
350
5C
  3
C1
350
5D
  3
C2
350
5E
  3
C3
350
5F
  3
C4
350
60
  3
C5
350
61
  3
C6
350
62
  3
C7
350
63
  3
C8
350
64
  3
C9
350
65
  3
D0
350
66
  3
D1
350
67
  3
D2
350
68
  0
XRECORD
  5
103
102
{ACAD_REACTORS
330
C
102
}
330
C
100
AcDbXrecord
280
     1
  1
DWGPROPS COOKIE
  2

  3

  4

  6

  7

  8
b.kav
  9

300
=
301
=
302
=
303
=
304
=
305
=
306
=
307
=
308
=
309
=
 40
0.0
 41
2459741.482910671
 42
2459741.482910671
  1

 90
        0
  0
LAYOUT
  5
1E
102
{ACAD_REACTORS
330
1A
102
}
330
1A
100
AcDbPlotSettings
  1

  2
none_device
  4

  6

 40
0.0
 41
0.0
 42
0.0
 43
0.0
 44
0.0
 45
0.0
 46
0.0
 47
0.0
 48
0.0
 49
0.0
140
0.0
141
0.0
142
1.0
143
1.0
 70
   688
 72
     1
 73
     0
 74
     5
  7

 75
    16
147
1.0
148
0.0
149
0.0
100
AcDbLayout
  1
Layout1
 70
     1
 71
     1
 10
0.0
 20
0.0
 11
420.0
 21
297.0
 12
0.0
 22
0.0
 32
0.0
 14
1.0000000000E+20
 24
1.0000000000E+20
 34
1.0000000000E+20
 15
-1.0000000000E+20
 25
-1.0000000000E+20
 35
-1.0000000000E+20
146
0.0
 13
0.0
 23
0.0
 33
0.0
 16
1.0
 26
0.0
 36
0.0
 17
0.0
 27
1.0
 37
0.0
 76
     0
330
1B
  0
LAYOUT
  5
26
102
{ACAD_REACTORS
330
1A
102
}
330
1A
100
AcDbPlotSettings
  1

  2
none_device
  4

  6

 40
0.0
 41
0.0
 42
0.0
 43
0.0
 44
0.0
 45
0.0
 46
0.0
 47
0.0
 48
0.0
 49
0.0
140
0.0
141
0.0
142
1.0
143
1.0
 70
   688
 72
     1
 73
     0
 74
     5
  7

 75
    16
147
1.0
148
0.0
149
0.0
100
AcDbLayout
  1
Layout2
 70
     1
 71
     2
 10
0.0
 20
0.0
 11
0.0
 21
0.0
 12
0.0
 22
0.0
 32
0.0
 14
0.0
 24
0.0
 34
0.0
 15
0.0
 25
0.0
 35
0.0
146
0.0
 13
0.0
 23
0.0
 33
0.0
 16
1.0
 26
0.0
 36
0.0
 17
0.0
 27
1.0
 37
0.0
 76
     0
330
23
  0
LAYOUT
  5
22
102
{ACAD_REACTORS
330
1A
102
}
330
1A
100
AcDbPlotSettings
  1

  2
none_device
  4
Letter_(8.50_x_11.00_Inches)
  6

 40
6.35
 41
6.35
 42
6.35000508
 43
6.35000508
 44
215.9
 45
279.4
 46
0.0
 47
0.0
 48
0.0
 49
0.0
140
0.0
141
0.0
142
1.0
143
1.0
 70
  1712
 72
     1
 73
     0
 74
     0
  7

 75
     0
147
1.0
148
0.0
149
0.0
100
AcDbLayout
  1
Model
 70
     1
 71
     0
 10
0.0
 20
0.0
 11
279.4
 21
215.9
 12
0.0
 22
0.0
 32
0.0
 14
0.0
 24
0.0
 34
0.0
 15
279.4
 25
215.9
 35
0.0
146
0.0
 13
0.0
 23
0.0
 33
0.0
 16
1.0
 26
0.0
 36
0.0
 17
0.0
 27
1.0
 37
0.0
 76
     0
330
1F
331
29
  0
MLINESTYLE
  5
18
102
{ACAD_REACTORS
330
17
102
}
330
17
100
AcDbMlineStyle
  2
Standard
 70
     0
  3

 62
   256
 51
90.0
 52
90.0
 71
     2
 49
0.5
 62
   256
  6
BYLAYER
 49
-0.5
 62
   256
  6
BYLAYER
  0
ACDBPLACEHOLDER
  5
F
102
{ACAD_REACTORS
330
E
102
}
330
E
  0
SCALE
  5
48
102
{ACAD_REACTORS
330
47
102
}
330
47
100
AcDbScale
 70
     0
300
1:1
140
1.0
141
1.0
290
     1
  0
SCALE
  5
49
102
{ACAD_REACTORS
330
47
102
}
330
47
100
AcDbScale
 70
     0
300
1:2
140
1.0
141
2.0
290
     0
  0
SCALE
  5
4A
102
{ACAD_REACTORS
330
47
102
}
330
47
100
AcDbScale
 70
     0
300
1:4
140
1.0
141
4.0
290
     0
  0
SCALE
  5
4B
102
{ACAD_REACTORS
330
47
102
}
330
47
100
AcDbScale
 70
     0
300
1:5
140
1.0
141
5.0
290
     0
  0
SCALE
  5
4C
102
{ACAD_REACTORS
330
47
102
}
330
47
100
AcDbScale
 70
     0
300
1:8
140
1.0
141
8.0
290
     0
  0
SCALE
  5
4D
102
{ACAD_REACTORS
330
47
102
}
330
47
100
AcDbScale
 70
     0
300
1:10
140
1.0
141
10.0
290
     0
  0
SCALE
  5
4E
102
{ACAD_REACTORS
330
47
102
}
330
47
100
AcDbScale
 70
     0
300
1:16
140
1.0
141
16.0
290
     0
  0
SCALE
  5
4F
102
{ACAD_REACTORS
330
47
102
}
330
47
100
AcDbScale
 70
     0
300
1:20
140
1.0
141
20.0
290
     0
  0
SCALE
  5
50
102
{ACAD_REACTORS
330
47
102
}
330
47
100
AcDbScale
 70
     0
300
1:30
140
1.0
141
30.0
290
     0
  0
SCALE
  5
51
102
{ACAD_REACTORS
330
47
102
}
330
47
100
AcDbScale
 70
     0
300
1:40
140
1.0
141
40.0
290
     0
  0
SCALE
  5
52
102
{ACAD_REACTORS
330
47
102
}
330
47
100
AcDbScale
 70
     0
300
1:50
140
1.0
141
50.0
290
     0
  0
SCALE
  5
53
102
{ACAD_REACTORS
330
47
102
}
330
47
100
AcDbScale
 70
     0
300
1:100
140
1.0
141
100.0
290
     0
  0
SCALE
  5
54
102
{ACAD_REACTORS
330
47
102
}
330
47
100
AcDbScale
 70
     0
300
2:1
140
2.0
141
1.0
290
     0
  0
SCALE
  5
55
102
{ACAD_REACTORS
330
47
102
}
330
47
100
AcDbScale
 70
     0
300
4:1
140
4.0
141
1.0
290
     0
  0
SCALE
  5
56
102
{ACAD_REACTORS
330
47
102
}
330
47
100
AcDbScale
 70
     0
300
8:1
140
8.0
141
1.0
290
     0
  0
SCALE
  5
57
102
{ACAD_REACTORS
330
47
102
}
330
47
100
AcDbScale
 70
     0
300
10:1
140
10.0
141
1.0
290
     0
  0
SCALE
  5
58
102
{ACAD_REACTORS
330
47
102
}
330
47
100
AcDbScale
 70
     0
300
100:1
140
100.0
141
1.0
290
     0
  0
SCALE
  5
59
102
{ACAD_REACTORS
330
47
102
}
330
47
100
AcDbScale
 70
     0
300
1/128" = 1'-0"
140
0.0078125
141
12.0
290
     0
  0
SCALE
  5
5A
102
{ACAD_REACTORS
330
47
102
}
330
47
100
AcDbScale
 70
     0
300
1/64" = 1'-0"
140
0.015625
141
12.0
290
     0
  0
SCALE
  5
5B
102
{ACAD_REACTORS
330
47
102
}
330
47
100
AcDbScale
 70
     0
300
1/32" = 1'-0"
140
0.03125
141
12.0
290
     0
  0
SCALE
  5
5C
102
{ACAD_REACTORS
330
47
102
}
330
47
100
AcDbScale
 70
     0
300
1/16" = 1'-0"
140
0.0625
141
12.0
290
     0
  0
SCALE
  5
5D
102
{ACAD_REACTORS
330
47
102
}
330
47
100
AcDbScale
 70
     0
300
3/32" = 1'-0"
140
0.09375
141
12.0
290
     0
  0
SCALE
  5
5E
102
{ACAD_REACTORS
330
47
102
}
330
47
100
AcDbScale
 70
     0
300
1/8" = 1'-0"
140
0.125
141
12.0
290
     0
  0
SCALE
  5
5F
102
{ACAD_REACTORS
330
47
102
}
330
47
100
AcDbScale
 70
     0
300
3/16" = 1'-0"
140
0.1875
141
12.0
290
     0
  0
SCALE
  5
60
102
{ACAD_REACTORS
330
47
102
}
330
47
100
AcDbScale
 70
     0
300
1/4" = 1'-0"
140
0.25
141
12.0
290
     0
  0
SCALE
  5
61
102
{ACAD_REACTORS
330
47
102
}
330
47
100
AcDbScale
 70
     0
300
3/8" = 1'-0"
140
0.375
141
12.0
290
     0
  0
SCALE
  5
62
102
{ACAD_REACTORS
330
47
102
}
330
47
100
AcDbScale
 70
     0
300
1/2" = 1'-0"
140
0.5
141
12.0
290
     0
  0
SCALE
  5
63
102
{ACAD_REACTORS
330
47
102
}
330
47
100
AcDbScale
 70
     0
300
3/4" = 1'-0"
140
0.75
141
12.0
290
     0
  0
SCALE
  5
64
102
{ACAD_REACTORS
330
47
102
}
330
47
100
AcDbScale
 70
     0
300
1" = 1'-0"
140
1.0
141
12.0
290
     0
  0
SCALE
  5
65
102
{ACAD_REACTORS
330
47
102
}
330
47
100
AcDbScale
 70
     0
300
1-1/2" = 1'-0"
140
1.5
141
12.0
290
     0
  0
SCALE
  5
66
102
{ACAD_REACTORS
330
47
102
}
330
47
100
AcDbScale
 70
     0
300
3" = 1'-0"
140
3.0
141
12.0
290
     0
  0
SCALE
  5
67
102
{ACAD_REACTORS
330
47
102
}
330
47
100
AcDbScale
 70
     0
300
6" = 1'-0"
140
6.0
141
12.0
290
     0
  0
SCALE
  5
68
102
{ACAD_REACTORS
330
47
102
}
330
47
100
AcDbScale
 70
     0
300
1'-0" = 1'-0"
140
12.0
141
12.0
290
     0
  0
ENDSEC
  0
EOF
